Song name
# A B C D E F G H I J K L M N O P Q R S T U V W X Y Z

Muse - Resistance tab

Hey! this is my first tab upload. please rate!

Intro

e|---------------------------------------------------------------------------|
B|---------------------------------------------------------------------------|
G|---2-4-5-7---5-4-5-2------2-4-5-7---5-4-5-7------0-7-9-10---9-7-9-5--------|
D|---------------------------------------------------------------------------|
A|---------------------------------------------------------------------------|
E|---------------------------------------------------------------------------|

e|---------------------------------------------------------------------------|
B|---------------------------------------------------------------------------|
G|---9-7-5-4---7-5-4-2---4-2-1-----------------------------------------------|
D|---------------------------------------------------------------------------|
A|---------------------------------------------------------------------------|
E|---------------------------------------------------------------------------|

Pre-chorus

e|---------------------------------------------------------------------------|
B|---6666---666---666665---5555---555---5555-3---3333---333---3333-1---------|
G|---5545---545---545745---5545---545---545724---4424---424---424502---------|
D|---------------------------------------------------------------------------|
A|---------------------------------------------------------------------------|
E|---------------------------------------------------------------------------|

e|---------------------------------------------------------------------------|
B|---1111---111----111-------------------------------------------------------|
G|---2202---202----2024------------------------------------------------------|
D|---------------------------------------------------------------------------|
A|---------------------------------------------------------------------------|
E|---------------------------------------------------------------------------|

e|---------------------------------------------------------------------------|
B|---6666---666---666665---5555---555---5555-3---3333---333---3333-1---------|
G|---5545---545---545745---5545---545---545724---4424---424---424502---------|
D|---------------------------------------------------------------------------|
A|---------------------------------------------------------------------------|
E|---------------------------------------------------------------------------|

e|------------11111111-------------------------------------------------------|
B|---1111---1111111111-------------------------------------------------------|
G|---2202---2022222222-------------------------------------------------------|
D|------------33333333-------------------------------------------------------|
A|------------33333333-------------------------------------------------------|
E|------------11111111-------------------------------------------------------|
              ........

Chorus

e|---000000001111111100000000111111113333333311111111------------------------|
B|---111111111111111111111111111111110000000011111111------------------------|
G|---000000000000000000000000000000000000000022222222------------------------|
D|---222222222222222222222222222222220000000033333333------------------------|
A|---333333333333333333333333333333332222222233333333------------------------|
E|-----------------------------------3333333311111111------------------------|

e|---000000000000000000000000333333331111111111111111------------------------|
B|---111111110000000011111111111100001111111111111111------------------------|
G|---222222222222222222222222000000002222222222222222------------------------|
D|---222222222222222222222222000000003333333333333333------------------------|
A|---000000000000000000000000222222223333333333333333------------------------|
E|---------------------------333333331111111111111111------------------------|

e|------------------------0--------------------------------------------------|
B|---6666---666---6666----0--------------------------------------------------|
G|---5545---545---5457----1-------------------------------------------------|
D|------------------------2-------------------------------------------------|
A|------------------------2-------------------------------------------------|
E|------------------------0-------------------------------------------------|

Pre-verse

e|---------------------------------------------------------------------------|
B|---------------------------------------------------------------------------|
G|--7b--5-7-5----0-4-5-7---5-4-5-4----0-4-5-7----5-4-5-2---------1-2-4-------|
D|---------------------------------------------------------------------------|
A|---------------------------------------------------------------------------|
E|---------------------------------------------------------------------------|

Pre-chorus

e|---------------------------------------------------------------------------|
B|---6666---666---666665---5555---555---5555-3---3333---333---3333-1---------|
G|---5545---545---545745---5545---545---545724---4424---424---424502---------|
D|---------------------------------------------------------------------------|
A|---------------------------------------------------------------------------|
E|---------------------------------------------------------------------------|

e|---------------------------------------------------------------------------|
B|---1111---111----111-------------------------------------------------------|
G|---2202---202----2024------------------------------------------------------|
D|---------------------------------------------------------------------------|
A|---------------------------------------------------------------------------|
E|---------------------------------------------------------------------------|

e|---------------------------------------------------------------------------|
B|---6666---666---666665---5555---555---5555-3---3333---333---3333-1---------|
G|---5545---545---545745---5545---545---545724---4424---424---424502---------|
D|---------------------------------------------------------------------------|
A|---------------------------------------------------------------------------|
E|---------------------------------------------------------------------------|

e|------------11111111-------------------------------------------------------|
B|---1111---1111111111-------------------------------------------------------|
G|---2202---2022222222-------------------------------------------------------|
D|------------33333333-------------------------------------------------------|
A|------------33333333-------------------------------------------------------|
E|------------11111111-------------------------------------------------------|
              ........

Chorus

e|---000000001111111100000000111111113333333311111111------------------------|
B|---111111111111111111111111111111110000000011111111------------------------|
G|---000000000000000000000000000000000000000022222222------------------------|
D|---222222222222222222222222222222220000000033333333------------------------|
A|---333333333333333333333333333333332222222233333333------------------------|
E|-----------------------------------3333333311111111------------------------|

e|---0000000000000000000000003333333311111111111111111111111111111111--------|
B|---1111111100000000111111111111000011111111111111111111111111111111--------|
G|---2222222222222222222222220000000022222222222222222222222222222222--------|
D|---2222222222222222222222220000000033333333333333333333333333333333--------|
A|---0000000000000000000000002222222233333333333333333333333333333333--------|
E|---------------------------3333333311111111111111111111111111111111--------|

e|---0------------3-----------------1111000033333333-------------------------|
B|---1------------0-----------------1111111100000000-------------------------|
G|---0------------0-----------------2222222200000000-------------------------|
D|---2------------0-----------------3333222200000000-------------------------|
A|---3------------2-----------------3333000022222222-------------------------|
E|----------------3-----------------1111----33333333-------------------------|

e|---1111000033333333111100003333000011110000--------------------------------|
B|---1111111100000000111111110000000011112222--------------------------------|
G|---2222222200000000222222220000111122222222--------------------------------|
D|---3333222200000000333322220000222233332222--------------------------------|
A|---3333000022222222333300002222222233330000--------------------------------|
E|---1111----333333331111----333300001111------------------------------------|

e|---55555555-------5555555533333333------------------------------------------|
B|---66666666-------6666666655555555------------------------------------------|
G|---777777776-6-6-67777777755555555------------------------------------------|
D|---777777777-7-7-77777777755555555555555557777777799991010101012-1215151515-|
A|---555555557-7-7-75555555533333333555555557777777799991010101012-1215151515-|
E|-----------5-5-5-5----------------333333335555555577778-8-8-8-10-1013131313-|

Tap to rate this tab
 
# A B C D E F G H I J K L M N O P Q R S T U V W X Y Z