Song name
# A B C D E F G H I J K L M N O P Q R S T U V W X Y Z

Muse - Exogenesis Symphony Part 1 Overture tab

Exogenesis Symphony Part 1 Overture
Artist: Muse
Album: The Resistance
Drop D tuning: DADGBe
Tabbed by FlySWATER 10/02/2009
Solo starts at 2:54. Play with feeling!

e-----------------------------------------------------------------------|
B-----------------------------------------------------------------------|
G-----------------------------------------------------------------------|
D---------------------------------/8v---/12v--/11v--/8-8-7-7-7t---------|
A-----------------------------------------------------------------------|
D-20/0----3v----6v--7v--7t---7(let note ring)---------------------------|

e-----------------------------------------------------------------------|
B-----------------------------------------------------------------------|
G------------------14-15-15/17t--17/15t--15/14t--12-14-14br-12-14br-12t-|
D-------0-2-3-2-3-------------------------------------------------------|
A-0-2-3-----------------------------------------------------------------|
D-----------------------------------------------------------------------|

(play notes in this section hard)
e----------------------------------------------------------------------|
B----------------------------------------------------------------------|
G----------------------------------------------------------------------|
D----------------------------------------------------------------------|
A-20/0--0(let note ring)---1v----4v(bend down towards end of note)--0--|
D-------------------------------------------------------------------0--|

Key:
v - vibrato
/ - slide
t - tremolo pick
b - bend
r - return
Tap to rate this tab
 
# A B C D E F G H I J K L M N O P Q R S T U V W X Y Z