Song name
# A B C D E F G H I J K L M N O P Q R S T U V W X Y Z

Muse - Plug In Baby drum

Band : Muse
Song : Plug In Baby 
Album : unreleased
Bassist : Chris Wolstenholme

Intro + Verse 1

     (guitar only)
G   |----------------|----------------|----------------|----------------|
D   |-4--------------|----------------|----------------|----------------|
A   |-4--------------|----------------|----------------|----------------|
E   |----------------|----------------|----------------|----------------|

             D
G   |-----------------------|-----------------------|
D   |-----12--12---------12-|-----12--12---------12-|
A   |-----------------12----|-----------------12----|
E   |10---------10-10-------|10---------10-10-------|

Main riff :

     F#                                       G                                                          

G  |----11--11-------11-|----11--11-------11-|-----12--12---------12-|-----12--12---------12-|
D  |--------------11----|--------------11----|-----------------12----|-----------------12----|
A  |9---------9-9-------|9---------9-9-------|10---------10-10-------|10---------10-10-------|
E  |--------------------|--------------------|-----------------------|-----------------------|
       
    D
G  |-----------------------|-----------------------|
D  |-----12--12---------12-|-----12--12---------12-|
A  |-----------------12----|-----------------12----|
E  |10---------10-10-------|10---------10-10-------|

repeat main riff 3x

Pre-chorus 1

      F#
G   |----------------|----------------|
D   |----------------|----------------|
A   |9-9-9-9-9-9-9-9-|9-9-9-9-9-9-9-9-|
E   |----------------|----------------|

Chorus 1

      G                My plug in baby…               Bm               F#
G   |------------------------|-----------------------|----------------|------------------|
D   |------------------------|-----------------------|9-9-9-9-9-9-9-9-|------------------|
A   |10-10-10-10-10-10-10-10-|10-10-10-10-10-10-10-10|----------------|9-9-9-9-9-12-10-9-|
E   |------------------------|-----------------------|----------------|------------------|

      G                                                Bm               F#
G   |------------------------|-----------------------|----------------|------------------|
D   |------------------------|-----------------------|9-9-9-9-9-9-9-9-|------------------|
A   |10-10-10-10-10-10-10-10-|10-10-10-10-10-10-10-10|----------------|9-9-9-9-9-12-10-9-|
E   |------------------------|-----------------------|----------------|------------------|

      G                                                Bm               F#
G   |------------------------|-----------------------|----------------|------------------|
D   |------------------------|-----------------------|9-9-9-9-9-9-9-9-|------------------|
A   |10-10-10-10-10-10-10-10-|10-10-10-10-10-10-10-10|----------------|9-9-9-9-9-12-10-9-|
E   |------------------------|-----------------------|----------------|------------------|

      G
G   |------------------------|-----------------------|
D   |------------------------|-----------------------|
A   |10-10-10-10-10-10-10-10-|10-10-10-10-10-10-10-10|
E   |------------------------|-----------------------|

     D
G   |----------------|----------------|
D   |12--12--12--12--|12--12--12--12--|
A   |--12--12--12--12|--12--12--12--12|
E   |----------------|----------------|

Bridge + verse 2

Play main riff 4 times

Pre-chorus 2 + chorus 2

Play pre-chorus 1 + chorus 1

Final

Riff 2 :

      F#				  G									
G   |11--11--11--11--|11--11--11--11--|12--12--12--12--|12--12--12--12--|
D   |--11--11--11--11|--11--11--11--11|--12--12--12--12|--12--12--12--12|
A   |----------------|----------------|----------------|----------------|
E   |----------------|----------------|----------------|----------------|

      D
G   |----------------|----------------|
D   |12--12--12--12--|12--12--12--12--|
A   |--12--12--12--12|--12--12--12--12|
E   |----------------|----------------|

Repeat riff 2 1x

Play main riff 1x, followed by :

     F#                                        G                                                          
 
G  |----11--11-------11-|----11--11-------11-|----------------|----------------|
D  |--------------11----|--------------11----|----------------|----------------|
A  |9---------9-9-------|9---------9-9-------|10--------------|----------------|
E  |--------------------|--------------------|----------------|----------------|

Note : This is a transcription from a live version of the song.
	
Tap to rate this tab
# A B C D E F G H I J K L M N O P Q R S T U V W X Y Z