Song name
# A B C D E F G H I J K L M N O P Q R S T U V W X Y Z

Muse - Haarp tab

Hope it's what's you're looking for :)




e|------------------------------------7-10-7-----------7-10~--------------|
B|----------------------------------7--------7-------7--------------------|
G|-----------9---------------9----7------------7---7----------------------|
D|-------5-9---9-5-------5-9----9~---------------9------------------------|
A|-----7-----------7---7--------------------------------------------------|
E|---7---------------7----------------------------------------------------|

e|---11-10-9----10--------------------------------------------------------|
B|------------------------------------------------------------------------|
G|------------------------------------------------------------------------|
D|-----------12----12--13-12-11-11-11-------------------5-4~--------------|
A|------------------------------------5~---6-5-4--6-5-4-------------------|
E|------------------------------------------------------------------------|

e|-------------------------------------7-10-7-----------------------------|
B|-----------------------------------7--------7-------7~-7~---------------|
G|-----------9---------------9-----7------------7---7---------------------|
D|-------5-9---9-5-------5-9----9~----------------9-----------------------|
A|-----7-----------7---7--------------------------------------------------|
E|---7---------------7----------------------------------------------------|

e|------------------------8--------------2-5-2-:--2-5-2-:-----------------|
B|---8-7-6-6-6--------------6----------3-------:3-------:-repeat----------|
G|-----------------------------------2------------------------------------|
D|-------------4~--3-5-4------3----4--------------------------------------|
A|------------------------------------------------------------------------|
E|------------------------------------------------------------------------|

e|--------12-17-20-17-12----------12-17-20~-------------------------------|
B|-----13----------------13----12-----------------------------------------|
G|--14----------------------14--------------------------------------------|
D|------------------------------------------------------------------------|
A|------------------------------------------------------------------------|
E|------------------------------------------------------------------------|

e|------------------------------------------------------------------------|
B|------------------------------------------------------------------------|
G|------------------------------------------------------------------------|
D|--14~-15-14-13----15-14----15-14-13-13-13-------------------------------|
A|------------------------------------------------------------------------|
E|---------------12-------12----------------12----------------------------|

e|-----------------17-16-------17-16--------------------------------------|
B|--------------17-------17-17-------17-17--------------------------------|
G|--------12-16----------------------------16-----------------------------|
D|-----14-------------------------------------18~-------------------------|
A|--14--------------------------------------------------------------------|
E|------------------------------------------------------------------------|
Tap to rate this tab
# A B C D E F G H I J K L M N O P Q R S T U V W X Y Z