Song name
# A B C D E F G H I J K L M N O P Q R S T U V W X Y Z

Muse - Guiding Light chords

Hey, good nice and esay solo to learn, took me a while to get the right pinch
harmonic on the G note though. Have fun

e---------------------------------------------------|
B---------------------------------------------------|
G---------------------------------------------------|
D---------------------------------------------------|
A------3----7--10---14----15-14-12------------------|
E-10/0-------------------------------13-12-10-----8-|

e-------------------------------------12-----12----|
B------------------------13----15-15b----15b-------|
G--------------------------------------------------|
D---------------2-3-5*-----------------------------|
A---------2-3-5------------------------------------|
E-3-2-3-5------------------------------------------|

e-------13-13-------13-13-------12-12-------12-12--|
B-14-14-------14-14-------12-12-------12-12--------|
G--------------------------------------------------|
D--------------------------------------------------|
A--------------------------------------------------|
E--------------------------------------------------|

e-------10-10-------10-10--------------------------|
B-10-10-------10-10-------Tremlo 13 til end--------|
G--------------------------------------------------|
D--------------------------------------------------|
A--------------------------------------------------|
E--------------------------------------------------|
Tap to rate this tab
# A B C D E F G H I J K L M N O P Q R S T U V W X Y Z