Guitaretab - guitar tabs
Song name
# A B C D E F G H I J K L M N O P Q R S T U V W X Y Z

Muse - Hysteria tab

Muse Ė hysteria

This is as close as I got to perfect, I have the guitar instrumental of
this song, and Im pretty sure that this is as good as it gets, hope you
agree. I am aware about the first part of the solo is just like many other
tabs, thatís because its right, simple as.

Intro - scratch your plectrum up the E string as below

e|------------------------------------------|
B|------------------------------------------|
G|------------------------------------------|
D|------------------------------------------|
A|------------------------------------------|
E|--1//////3//////////6/////////9/////////22|

You should be this far down the neck for each quarter of the time you do this

Riff - play twice

e|------------------------------------------------------------------|
B|----------------------12bu12-10------------------------12bu12-10--|
G|--14--14-14-14--14-14--------------13--13-13-13--13-13------------|
D|--x---x--x--x---x--x---------------x---x--x--x---x--x-------------|
A|--12--12-12-12--12-12--------------11--11-11-11--11-11------------|
E|------------------------------------------------------------------|

e|--------------------------------------------------------------|---|
B|----------------------12bu12-10------------------12bu12bu12bu-|---|
G|--10--10-10-10--10-10--------------9--9-9-9--9-9--------------|---|
D|--x---x--x--x---x--x---------------x--x-x-x--x-x--------------|-9-|
A|--8---8--8--8---8--8---------------7--7-7-7--7-7--------------|-9-|
E|--------------------------------------------------------------|-7-|
                                                        Play this chord second
Verse 1 - consists of this at the end of the verse -    time round, and mute after
e|----------------------------------|                   half a second
B|----------------------------------|
G|----------------------------------|
D|----------------------------------|
A|--8-8-8-8-7-7-7-7-6-6-6-6-5-5-5-5-|
E|--6-6-6-6-5-5-5-5-4-4-4-4-3-3-3-3-|
P.M ...............................

Chorus 1 - repeat this twice...
e|-------------------------------------------------------|
B|-------------------------------------------------------|
G|--5--5-5-5--4/5--5-5--5555-----------------------------|
D|--5--5-5-5--4/5--5-5--5555----5--5-5-5--4/5--5-5--5555-|
A|--3--3-3-3--2/3--3-3--3333----5--5-5-5--4/5--5-5--5555-|
E|------------------------------3--3-3-3--2/3--3-3--3333-|

e|---------------------------|---------------------------|
B|---------------------------|---------------------------|
G|--7--7-7-7--6/7--7-7--7777-|---------------------------|
D|--7--7-7-7--6/7--7-7--7777-|--7--7-7-7--6/7--7-7--7777-|
A|--5--5-5-5--4/5--5-5--5555-|--7--7-7-7--6/7--7-7--7777-|
E|---------------------------|--5--5-5-5--4/5--5-5--5555-|

...until you get to this, which replaces the last section second time round
e|-------------------------------------------|
B|-------------------------------------------|
G|-------------------------------------------|
D|-------------------------------------------|
A|-------------------------------------------|
E|--0-0-10-0-10-12-0-15-0-12-0-15-0-12-15h17-|

Riff - play once

Then -
e|---|
B|---|
G|---|
D|-9-| this chord is muted after half a second
A|-9-|
E|-7-|

Verse 2 - play this twice... (first time round, the first 4 notes are
replaced be the chord above, chord lasts for the 4 notes)

e|------------------------------------------------------------------------------|
B|------------------------------------------------------------------------------|
G|------------------------------------------------------------------------------|
D|------------------------------------------------------------------------------|
A|-0-0-10-0-10-12-0-10-0-7-0-8-8-7-5-7------------------------------------------|
E|-------------------------------------0-0-10-0-10-12-0-15-0-12-0-15-15-0-15-17-|

e|----------------------------------------|-------------------------------------|
B|----------------------------------------|-------------------------------------|
G|----------------------------------------|-------------------------------------|
D|-0-0-10-0-10-12-0-10-0-10-9-0-9-8-0-8-7-|-------------------------------------|
A|----------------------------------------|-0-0-10-0-10-12-0-10-0-7-0-8-8-7-5-7-|
E|----------------------------------------|-------------------------------------|

This replaces the last section second time round
e|----------------------------------|
B|----------------------------------|
G|----------------------------------|
D|----------------------------------|
A|--8-8-8-8-7-7-7-7-6-6-6-6-5-5-5-5-|
E|--6-6-6-6-5-5-5-5-4-4-4-4-3-3-3-3-|
P.M ...............................

Chorus 2 - play chorus 1 twice but the last section of the chorus is replaced by -

e|--------------------------|
B|--------------------------|
G|--------------------------|
D|--6/7--7-7--777777--------|
A|--6/7--7-7--777777--------|
E|--4/5--5-5--555555-12/----|
P.M.          ......

Play this 3 times -
e|------------------------------------------|
B|------------------------------------------|
G|------------------------------------------|
D|------------------------------------------|
A|------------------------------------------|
E|-0-0-10-0-10-12-0-10-0-10-9-0-9-8-0-8-0-7-|

Then this straight after
e|-------------------------------------------|
B|-------------------------------------------|
G|-------------------------------------------|
D|-------------------------------------------|
A|-------------------------------------------|
E|-0-0-10-0-10-12-0-15-0-12-0-15-15-12-15-17-|

FULL Solo - first section was easy to tab, but after that, wasnt so easy
(the main reason I made this was to tab out the full solo which the others
dont have, and various other mistakes in the other tablatures)

Section 1 -

e|--------12-12-------13-13-------13-13-12-12----12-|
B|--------------------------------------------------|
G|--14-14-------14-14-------14-14-------------14----|
D|--------------------------------------------------|
A|--------------------------------------------------|
E|--------------------------------------------------|
[ Tab from: http://www.guitaretab.com/m/muse/218363.html ]
e|--------12-12-------13-13-------13-13-12-12---(0)-|
B|--------------------------------------------------|
G|--13-13-------13-13-------13-13-------------13----|
D|-----------------------------------------------14-|
A|--------------------------------------------------|
E|--------------------------------------------------|

e|--------12-12-------17-17-------13-13-------12-12-|
B|--------------------------------------------------|
G|--14-14-------14-14-------14-14-------14-14-------|
D|--------------------------------------------------|
A|--------------------------------------------------|
E|--------------------------------------------------|

e|--------12-12-------13-13-------13-13-12-12----12-|
B|--------------------------------------------------|
G|--14-14-------14-14-------14-14-------------14----|
D|--------------------------------------------------|
A|--------------------------------------------------|
E|--------------------------------------------------|

e|--------12-12-------13-13-------13-13-12-12----12-|
B|--------------------------------------------------|
G|--14-14-------14-14-------14-14-------------14----|
D|--------------------------------------------------|
A|--------------------------------------------------|
E|--------------------------------------------------|

e|--------12-12-------13-13-------13-13-12-12---(0)-|
B|--------------------------------------------------|
G|--13-13-------13-13-------13-13-------------13----|
D|-----------------------------------------------14-|
A|--------------------------------------------------|
E|--------------------------------------------------|

e|--------12-12-------17-17-------13-13-------12(0)-|
B|--------------------------------------------------|
G|--14-14-------14-14-------14-14-------14-14-------|
D|-----------------------------------------------14-|
A|--------------------------------------------------|
E|--------------------------------------------------|

e|--12----------------------------------------------|
B|--------------15----------13----------12----------|
G|-----14-14-14-------------------------------------|
D|-----------------15-15-15----14-14-14----12-12-12-|
A|--------------------------------------------------|
E|--------------------------------------------------|

Section 2 - some delay effect of some sort

e|-----------------------------------------------------------------------------|
B|--13--------------13--12--10h12-12--------------12--12--13h15-15-------------|
G|------12----------------------------12----------------------------14---------|
D|----------14----------------------------12---------------------------15------|
A|-----------------------------------------------------------------------------|
E|-----------------------------------------------------------------------------|

e|-------------------------------------------------------------------------|
B|-15-13--12h13-13--------------15--13-12h13-13------------12bu12-10h12-12-|
G|------------------14---------------------------12------------------------|
D|----------------------14---------------------------14--------------------|
A|-------------------------------------------------------------------------|
E|-------------------------------------------------------------------------|

e|-------------------------------------------------------------------------|
G|-------------12--12--13h15bh~---------------15--13--12h13----------------|
B|-12------------------------------14------------------------14------------|
D|-----12-----------------------------15------------------------14---------|
A|-------------------------------------------------------------------------|
E|-------------------------------------------------------------------------|

You can hear this very faintly, and hard to make out, between end of section 2 and 
of section 3

e|-------------------|
B|-11h13h14h15p13p10-|
G|-------------------|
D|-------------------|
A|-------------------|
E|-------------------|

Section 3 - this plays when the chorus plays (including when matt sings and
plays the chords) so you must listen carefully for this part

e|------------------------------------------------------------------------|
B|-6b------------6--5--3/5-5------------4--4--6-6b-----------9--7-6bu-----|
G|-----5----------------------5--------------------6----------------------|
D|--------7----------------------5--------------------7-------------------|
A|------------------------------------------------------------------------|
E|------------------------------------------------------------------------|

e|------------------------------------------------------------------------|
B|-----------6bu-5-6------------6--4-----4------------4--4--6--7----------|
G|-7------------------6---------------6-----4---------------------6-------|
D|----7------------------6---------------------4---------------------7----|
A|------------------------------------------------------------------------|
E|------------------------------------------------------------------------|

e|------------------------| guitar 2 or whatever plays the chorus which matt plays
B|---9--7--6bu------------| on top of this (section 3) (this chorus is exactly the
G|--------------7---------| same as chorus 2) I know they havent got 2 guitars, so
D|-----------------7------| donít bother pointing that out.
A|------------------------|
E|------------------------|

Ending - do this 5 times...

e|------------------------------------------|
B|------------------------------------------|
G|------------------------------------------|
D|------------------------------------------|
A|------------------------------------------|
E|-0-0-10-0-10-12-0-10-0-10-9-0-9-8-0-8-0-7-|

...then this once

e|-------------------------------------------|
B|-------------------------------------------|
G|-------------------------------------------|
D|-------------------------------------------|
A|-------------------------------------------|
E|-0-0-10-0-10-12-0-10-0-10-9-0-9-8-0-8-0-7\-|

Then youre finished, this was real good fun tabbing this, hope you enjoy
it as much as Ive been tabbing for these 3 days (dont be harsh, this is
my first:D). - Muse_freek

Legend Ė
x      - muted note
/      - slide up/down
h      - hammer-on
p      - pull-off
b      - bend
bu     - bend and bend back
P.M... - palm muting
()     - Alternative note
Related for Hysteria tab
Hysteria chords by Muse