Song name
# A B C D E F G H I J K L M N O P Q R S T U V W X Y Z

Muse - Resistance tab

-------------------------------------------------------------------------------
			     Resistance - MUSE
-------------------------------------------------------------------------------
Tabbed by: blurenciel
Email: blurenciel@gmail.com

Tuning: drop-D

Please rate and comment!! Enjoy!!


Intro (2X)
*the piano part
e|--------10-----------------------------------10----10-12-13-12-10-12-------|
B|--12-13----13-12-13-10-----10-12-13-12-10-12-------------------------13----|
G|9------------------------9----------------------12-------------------------|
D|---------------------------------------------------------------------------|
A|---------------------------------------------------------------------------|
D|---------------------------------------------------------------------------|


e|-12-10-------10---------------------------------------------------------------|
B|-------13-12----13-12-10-12p10-9----------------------------------------------|
G|------------------------------------------------------------------------------|
D|------------------------------------------------------------------------------|
A|------------------------------------------------------------------------------|
D|------------------------------------------------------------------------------|

Verse
*i can't really hear any guitar in the verse but i normally play by chords or..
Is our secret safe tonight...or will the walls start caving in?
e|---------------------------------------------------------------------------|
B|-13-----------12--------10----9----12--------------------------------------|
G|---------------------------------------------------------------------------|
D|---------------------------------------------------------------------------|
A|---------------------------------------------------------------------------|
D|---------------------------------------------------------------------------|

Pre-chorus
It could be wrong...It could be wrong could be....
 |<--------------REPEAT 2X------------------------>|
   F5             Am            G                 F      F(PM)
e|---------------------------------------------------------------------------|
B|---------------------------------------------------------------------------|
G|-10-------------9-------------7-----------------5--------------------------|
D|-10-------------10------------9-----------------7------3-------------------|
A|-------------------------------------------------------3-------------------|
D|-------------------------------------------------------3-------------------|
*refer to the song please..

Chorus
              C
Love is our resistance
                                                        G
They'll keep us apart and they wont to stop breaking us down
Am
Hold me
              G         F
our lips must always be sealed

-or-

   C x8      Csus4 x8  C x16     G x16     Am x8     Asus4 x8  Am x8
e|---------------------------------------------------------------------------|
B|-8---------8---------8---------8---------5---------5---------5-------------|
G|-9---------10--------9---------7---------5---------7---------5-------------|
D|-10--------10--------10--------9---------7---------7---------7-------------|
A|---------------------------------------------------------------------------|
D|---------------------------------------------------------------------------|

   G x8      F x16     F         E (let ring)
e|---------------------------------------------------------------------------|
B|-3---------6---------6---------5-------------------------------------------|
G|-4---------5---------5---------4-------------------------------------------|
D|-5---------3---------3---------2-------------------------------------------|
A|-----------3---------3---------2-------------------------------------------|
D|-----------3---------3---------2-------------------------------------------|
*the last F and E played like the pre-chorus part
**for the second chorus leave out the F and E, continue to bridge instead

Riff

Intro ->
Verse ->
Pre-chorus ->
Chorus ->

Bridge
              C
The night has reached it's end
   G
We can't pretend
        F   Am   G
We must run
        F   Am   G
We must run
            F  Am   G   E   F   Am
Its time to run

Outro
             Dm
Take us away from here
   Am              Dm       C
Protect us from further harm
  G5  A5  B5  C5  D5  F5
Resistance

*for the last part
   G5        A5        B5        C5         D5         F5
e|---------------------------------------------------------------------------|
B|---------------------------------------------------------------------------|
G|---------------------------------------------------------------------------|
D|-5---------7---------9---------10---------12---------15--------------------|
A|-5---------7---------9---------10---------12---------15--------------------|
D|-5---------7---------9---------10---------12---------15--------------------|

blurenciel2010
26032010
1303
Tap to rate this tab
# A B C D E F G H I J K L M N O P Q R S T U V W X Y Z