Song name
# A B C D E F G H I J K L M N O P Q R S T U V W X Y Z

Muse - Undisclosed Desires tab

My First tab, best played on an Acoustic Guitar, But Does work well on Electric, thanks!


Chords Used

       Am7      Em     C      Am     G

    E|--0----|--0---|--0---|--0---|--3---|
    B|--1----|--0---|--1---|--1---|--0---|
    G|--0----|--0---|--0---|--2---|--0---|
    D|--2----|--2---|--2---|--2---|--0---|
    A|--0----|--2---|--3---|--0---|--2---|
    E|--0----|--0---|--0---|--0---|--3---|

Introduction  

  Am7               C (or Am7)       Em                Em
E|----------------|----------------|-----------------|------------------|    x2
B|----------1-----|----------1-----|-----------0-----|------------0-----|
G|------0-----0---|------0-----0---|-------0-----0---|-------0------0---|
D|----2---2-----2-|----2---2-----2-|-----2---2-----2-|-----2----2-----2-|
A|--0-------------|--3-------------|--2--------------|--2---------------|
E|----------------|----------------|-----------------|------------------|

Verse

  C                C               Em                Em
E|---------------|----------------|----------------|-----------------| X4
B|---------1-----|----------1-----|----------0-----|-----------0-----|
G|------0----0---|------0-----0---|------0-----0---|-------0-----0---|
D|----2---2----2-|----2---2-----2-|----2---2-----2-|-----2---2-----2-|
A|--3------------|--3-------------|--2-------------|--2--------------|
E|---------------|----------------|----------------|-----------------|

Chorus (Similar to the Slap Bass)

  Am---------------C ------------Em -------------G---------  X4
E|--0---0-0-0-|--0-0---0-0-0-|--0-0---0-0-0-|--0-3---3-3-3-|
B|--1---1-1-1-|--1-1---1-1-1-|--1-0---0-0-0-|--0-0---0-0-0-|
G|--2---2-2-2-|--2-0---0-0-0-|--0-0---0-0-0-|--0-0---0-0-0-|
D|--2---2-2-2-|--2-2---2-2-2-|--2-2---2-2-2-|--2-0---0-0-0-|
A|--0---0-0-0-|--0-3---3-3-3-|--3-2---2-2-2-|--2-2---2-2-2-|
E|--0---0-0-0-|--0-0---0-0-0-|--0-0---0-0-0-|--0-3---3-3-3-|

Verse

  C                C               Em                Em
E|---------------|----------------|----------------|-----------------| X4
B|---------1-----|----------1-----|----------0-----|-----------0-----|
G|------0----0---|------0-----0---|------0-----0---|-------0-----0---|
D|----2---2----2-|----2---2-----2-|----2---2-----2-|-----2---2-----2-|
A|--3------------|--3-------------|--2-------------|--2--------------|
E|---------------|----------------|----------------|-----------------|

Chorus (Similar to the Slap Bass)

  Am---------------C -------------Em ------------G---------- X4
E|--0---0-0-0-|--0-0---0-0-0-|--0-0---0-0-0-|--0-3---3-3-3-|
B|--1---1-1-1-|--1-1---1-1-1-|--1-0---0-0-0-|--0-0---0-0-0-|
G|--2---2-2-2-|--2-0---0-0-0-|--0-0---0-0-0-|--0-0---0-0-0-|
D|--2---2-2-2-|--2-2---2-2-2-|--2-2---2-2-2-|--2-0---0-0-0-|
A|--0---0-0-0-|--0-3---3-3-3-|--3-2---2-2-2-|--2-2---2-2-2-|
E|--0---0-0-0-|--0-0---0-0-0-|--0-0---0-0-0-|--0-3---3-3-3-|

Interlude Section

  Am        Em       X2
E|--0---0-|--0---0-| 
B|--1---1-|--0---0-|
G|--2---2-|--0---0-|
D|--2---2-|--2---2-|
A|--0---0-|--2---2-|
E|--0---0-|--0---0-|

Then into this as the Bass Comes back in

E|----------|----------|    X2
B|----------|----------|
G|------0---|------0---|
D|----2---2-|----2---2-|
A|--0-------|--2-------|
E|----------|----------|

Chorus (Similar to the Slap Bass)

  Am---------------C ------------Em -------------G---------  X4
E|--0---0-0-0-|--0-0---0-0-0-|--0-0---0-0-0-|--0-3---3-3-3-|
B|--1---1-1-1-|--1-1---1-1-1-|--1-0---0-0-0-|--0-0---0-0-0-|
G|--2---2-2-2-|--2-0---0-0-0-|--0-0---0-0-0-|--0-0---0-0-0-|
D|--2---2-2-2-|--2-2---2-2-2-|--2-2---2-2-2-|--2-0---0-0-0-|
A|--0---0-0-0-|--0-3---3-3-3-|--3-2---2-2-2-|--2-2---2-2-2-|
E|--0---0-0-0-|--0-0---0-0-0-|--0-0---0-0-0-|--0-3---3-3-3-|


Outro

  Am7               C (or Am7)       Em                Em
E|----------------|----------------|-----------------|------------------|    x2
B|----------1-----|----------1-----|-----------0-----|------------0-----|
G|------0-----0---|------0-----0---|-------0-----0---|-------0------0---|
D|----2---2-----2-|----2---2-----2-|-----2---2-----2-|-----2----2-----2-|
A|--0-------------|--3-------------|--2--------------|--2---------------|
E|----------------|----------------|-----------------|------------------|
Tap to rate this tab
# A B C D E F G H I J K L M N O P Q R S T U V W X Y Z