Song name
# A B C D E F G H I J K L M N O P Q R S T U V W X Y Z

Muse - Take A Bow tab

-------------------------------------------------------------------------------
			     Take A Bow - Muse
-------------------------------------------------------------------------------

Tuning: E Tuning with a Dropped D.

Feel free to play the bass notes as power chords.
The lead lines are NOT dead on: I tabbed this by ear,
and I think that if you want to cover a song note for note
youre not a very creative guitarist, so some arenít dead on.

I did this because the other tab is up and down the
neck ridiculously fast, and this boxes most of the basslines
and leads together more.

If a note is like this 6. youre meant to hold the note, and -6b.- means bend and hold.

e|-----------------------------|------------------------|----------------------|
B|-----------------------------|------------------------|----------------------|
G|-----------------------------|------------------------|---------5-3-5-6-3-5.-|
D|---------3-1-3-3/4-3-1-3--4--|-1---1--5-3-5-6-5-3-5-6-|----------------------|
A|-1---1-----------------------|---2---2----------------|----------------------|
D|---4---4---------------------|------------------------|-6-2-6-2--------------|

Now, the bass does an octave thing here, but itís entirely optional lol.

e|--------------------------|-------------------------------------------------|
B|--------------------------|---------------------6-4-6-7-6-4-6 4-(6)-7b.-----|
G|--------8-6-8-9-8-6-8.-9.-|---/6---/2---/6---/2-----------------------------|
D|--------------------------|-------------------------------------------------|
A|--------------------------|-4----0----4----0--------------------------------|
D|-6-2-6-2------------------|-------------------------------------------------|

e|----------------6-4-6-6/7-6-4-6b.-7b.-|-------------------------------------|
B|--------------------------------------|-------------------------------------|
G|--------------------------------------|-------------------------------------|
D|---/4--------/4-----------------------|---/9--------/9----------------------|
A|--------/5----------------------------|-------/10--------/10----------------|
D|-4----0----4--------------------------|-9---5-----9----5--------------------|

e|-11-9-11-11h12-11-9-11-9-11-11h12bu-|-14-12-14-15-14-12-14-12-14-15.--------|
B|------------------------------------|---------------------------------------|
G|------------------------------------|---------------------------------------|
D|------------------------------------|---------------------------------------|
A|------------------------------------|---------------------------------------|
D|------------------------------------|-------------------------------//\\\\\-|

Tremolo. Listen to the song for timing
e|-19tr--|-22h23bu-19tr-------------------------------------------------------|
B|-------|--------------------------------------------------------------------|
G|-------|--------------------------------------------------------------------|
D|-------|--------------------------------------------------------------------|
A|-------|--------------------------------------------------------------------|
D|-------|--------------------------------------------------------------------|

Now, I play the bassline here because the guitar doesnt do much here.
e|------------------------|-------------------------------------------------------|
B|------------------------|-----------------13------------------------------------|
G|------------------------|-----------------12------------------------------------|
D|------------------------|-----------------10------------------------------------|
A|------------------------|-----------------10------------------------------------|
D|-99-5-8-9-5-99-5-8-9-5--|X2-------end on--10------------------------------------|

So there ya go =)
Tap to rate this tab
 
# A B C D E F G H I J K L M N O P Q R S T U V W X Y Z