Song name
# A B C D E F G H I J K L M N O P Q R S T U V W X Y Z

Muse - Neutron Star Collision tab

---------------------------------------------------------------------------
		    Neutron Star Collision - Muse
---------------------------------------------------------------------------
Tabbed by: Dr Sin	
Email: drsin13@hotmail.co.uk



Tuning: EADGBE (Standard)

Guitar comes in at 00:52

Intro:
e|------------------------------------------------------------------------|
B|------------------------------------------------------------------------|
G|------------------------------------------------------------------------|
D|------------------------------------------------------------------------|
A|--------4--420---------4~-----------------------------------------------|
E|-2--45----------2--45---------------------------------------------------|

Verse: No guitar again until Chorus

Chorus:
e|------------------------------------------------------------------------|
B|------------------------------------------------------------------------|
G|----------------------64444448-10101010101010------8-66----------------|
D|--44444444--67777777--64444448-10101010101010X3---8-66----------------|
A|--44444444--67777777--44444446-88888888888888------6-44----------------|
E|--22222222--45555555----------------------------------------------------|


Solo: (With reverb)
e|9-9-9-9-8-8-4-4-6-4-2-1/4-2-1-4-8-9-13-13h14p13-8-9-8-9-11-13-4---------|
B|------------------------------------------------------------------------|
G|------------------------------------------------------------------------|
D|------------------------------------------------------------------------|
A|------------------------------------------------------------------------|
E|------------------------------------------------------------------------|



| /  slide up
| \  slide down
| h  hammer-on
| p  pull-off
| ~  vibrato
| +  harmonic
| x  Mute note
===========================================================================

Tap to rate this tab
 
# A B C D E F G H I J K L M N O P Q R S T U V W X Y Z