Song name
# A B C D E F G H I J K L M N O P Q R S T U V W X Y Z

Muse - Neutron Star Collision tab

Well Another Great Muse Song For The Twilight Movies..
I think This tab is Kind A Good To play This Song.
Enjoy and please comment.


Figure The Struming By your self :P


(Piano) Intro Part :

e|---------------------------|
B|---------------------------|
G|----6--5--------6--5-------|      play this 2 Times.
D|----6--6----4---6--6-------|
A|----4--4----4---x--x-------|
E|------------2---4--4-------|

Per Chours:

e|-------------------------------------|
B|-------------------------------------|
G|-------------------6-------------6-5-|
D|----3---6--8---6---6-----3---4---6-6-|
A|----3---8--8---6---4-----3---4---x-x-|
E|----1---5--6---4---------1---2---4-4-|

Chours:


e|----2------3--4--------------------|
B|----2------3--4-------------10-----|
G|----3------5--6-----6----8--10-----|
D|----4--x3--6--7-x3--6-x3-8--10-x3--|
A|----4------6--7-----4----6---8-----|
E|----2------4--5--------------------|


End With
e|-----------------------|
B|-----------------------|
G|----6-6-6--------------|
D|----6-6-6--------------|Let It Ring
A|----4-4-4--------------|
E|-----------------------|


The guitar Part Coms in the second time of the piano part:

part 1 :
e|--------------------------|
B|--------------------------|
G|--------------------------|
D|--------------------------|
A|--------------4v---2------|
E|----2v--4-5v---------5v---|

part 2:

e|-------------------|
B|-------------------|
G|---------------6v--|
D|----4v---6-7v------|
A|-------------------|
E|-------------------|

then repeat The vers And Per Chours And Chours Are The same
just a little bit fatster =]

until the solo

solo
With Delay:
e|---------------------------------------------------|
B|14v-14v-14v-14v-13v-13v-9-9-9s11-9-------9---------|
G|-----------------------------------11-10---11-10v--|
D|---------------------------------------------------|
A|---------------------------------------------------|
E|---------------------------------------------------|

part 2:
e|----------11--13h14p13--11----------11-----13b---------|
B|----13-14-----------------14-13-14--------------9v-----|
G|-------------------------------------------------------|
D|-------------------------------------------------------|
A|-------------------------------------------------------|
E|-------------------------------------------------------|

Then We go To The Per chours And Then The Last Chours

End With
e|-----------------------|
B|-----------------------|
G|----6-6-6--------------|
D|----6-6-6--------------|Let It Ring
A|----4-4-4--------------|
E|-----------------------|

Enjoy it's not 100% correc..so if there is anymistake you can send me
Muse Rocks!@#
Tap to rate this tab
 
# A B C D E F G H I J K L M N O P Q R S T U V W X Y Z