Guitaretab - guitar tabs
Song name
# A B C D E F G H I J K L M N O P Q R S T U V W X Y Z

Muse - Neutron Star Collision tab

Song: Neutron Star Collision (Love is Forever)
Artist: Muse
Tabbed by: funguy

All guitar parts should be full and correct. If any mistake, please don't hesitate to message me.

Tuning: Standard (EADGBe)

intro: ("...and lie...")
e|--------------------------------|
B|--------------------------------|
G|------------------------------6-|
D|----------------------4--6-7----|
A|-----------4--3-----------------|
E|-2--4-5---------6-5-------------|


verse:("the world is broken...")
e|---------------|
B|---------------|
G|-6--10--11--13-| gallop
D|-6--10--11--13-|
A|-4--8---9---11-|
E|---------------| x2
      ("...hail, the preachers...")
e|---------------------------|
B|---------------------------|
G|----------5--6--10--11--13-|  gallop
D|-6--7--8--5--6--10--11--13-|
A|-6--7--8--3--4--8---9---11-|
E|-4--5--6-------------------|


chorus: ("love, is forever...")
e|----------------------------------------------|
B|----------------------------------------------|
G|----------------------6--6-6-6-8-10--10-10-10-|
D|-4--4-4-4-6-7--7-7-7--6--6-6-6-8-10--10-10-10-|
A|-4--4-4-4-6-7--7-7-7--4--4-4-4-6-8---8--8--8--|
E|-2--2-2-2-4-5--5-5-5--------------------------|  x3
[ Tab from: http://www.guitaretab.com/m/muse/225994.html ]
        ("cause our love...")
e|-----------------------------|
B|-----------------------------|
G|----------------------6--6-6-|
D|-4--4-4-4-6-7--7-7-7--6--6-6-|
A|-4--4-4-4-6-7--7-7-7--4--4-4-|
E|-2--2-2-2-4-5--5-5-5---------|


solo/bridge:
e|------------------------------9-11-13-13h14p13-11--9-8-9-11-14----|
B|-14--13--9--11-9-7-6-9-7--6-9-------------------------------------|
G|---------------------------------------------------------------13-|
D|------------------------------------------------------------------|
A|------------------------------------------------------------------|
E|------------------------------------------------------------------|


verse: ("now, I've got nothing to lose...")
e|---------------------------|
B|---------------------------|
G|----------5--6--10--11--13-|  gallop
D|-6--7--8--5--6--10--11--13-|
A|-6--7--8--3--4--8---9---11-|
E|-4--5--6-------------------|


chorus:("...love, will be forever...")
e|----------------------------------------------|
B|----------------------------------------------|
G|----------------------6--6-6-6-8-10--10-10-10-|
D|-4--4-4-4-6-7--7-7-7--6--6-6-6-8-10--10-10-10-|
A|-4--4-4-4-6-7--7-7-7--4--4-4-4-6-8---8--8--8--|
E|-2--2-2-2-4-5--5-5-5--------------------------|  x3

         ("...cause our love...")
e|-----------------------------|
B|-----------------------------|
G|----------------------6--6-6-|
D|-4--4-4-4-6-7--7-7-7--6--6-6-|
A|-4--4-4-4-6-7--7-7-7--4--4-4-|
E|-2--2-2-2-4-5--5-5-5---------|
Related for Neutron Star Collision tab
×
Best way to learn
"Neutron Star Collision"