Song name
# A B C D E F G H I J K L M N O P Q R S T U V W X Y Z

Muse - Undisclosed Desires tab

Author : http://www.muselive.com/page.php?id=1415
Date : 29-09-2009 01:56

Standard Tuning
E,A,D,G,B,e

Verse:

e:-11-----------|-11-----------|-10------------|-10-----------------|
B:--------11----|--------11----|--------11-----|-------11-----------|
G:-----------12-|-----------12-|------------12-|-----------12-------|
D:---------------|---------------|---------------|------------------|
A:---------------|---------------|---------------|------------------|
E:----------------|---------------|---------------|-----------------|

Repeat x2 for Intro
Repeat x4 for Verse

Chorus:

e:--------15------------|--------15------------|--------15-----------------|
B:-----16----15-16-----|-----16---15-16-15-|----15-----13-15---------------|
G:-------------------15-|-----------------------|-------------------15-----|
D:-----------------------|-----------------------|-------------------------|
A:-----------------------|-----------------------|-------------------------|
E:-----------------------|-----------------------|-------------------------|

e:-------13--------------|
B:----15---13-15-16------|
G:-----------------------|
D:-----------------------|
A:-----------------------|
E:-----------------------|

Repeat x4


Order of Song:

Intro
Verse
Chorus
Verse
Chorus
Bridge (No Part)
Verse (Remain Static)
Chorus (Return to Playing)
Intro

I figured this out by ear so the Chorus part might be a little bit off.
Tap to rate this tab
 
# A B C D E F G H I J K L M N O P Q R S T U V W X Y Z