Song name
# A B C D E F G H I J K L M N O P Q R S T U V W X Y Z

Muse - Uprising Live tab

-------------------------------------------------------------------------------
			     Uprising - Muse
-------------------------------------------------------------------------------
Tabbed by:Anthony1991
Email:cmk_andy@hotmail.com

Tuning:DADGBe

This is the real tab for the outro of the song, it is combined with footage of the 
special edition DVD,
along with live performances. The other tabs for this are just a
semitone or tone out.

e|------------------------------------------|
B|------------------------------------------|
G|------------------------------------------|
D|------------------------------------------|    x4
A|------------3h4h5------------------3h4h5--|
D|-0-3--5h6h7----------0-3--5h6h7-----------|

Do this riff exactly as tabbed four times over.

The slide part changes the riff slightly but not greatly.

e|---------------------------------------------------------------------------------|
B|---------------------------------------------------------------------------------|
G|---------------------------------------------------------------------------------|
D|---------------------------------------------------------------------------------|    x3
A|---------------3h4h5-5/8~----------- 3h4h5---------------------------------------|
D|-0-3--5h6h7-------------------5h6h7----------------------------------------------|

Do this riff exactly as tabbed three times over.

e|--------------------------------------------------------------------------------|
B|---------------------------------------------------------------------15b-15b-r--|
G|---------------------------------------------------------------------17b-17b-r--|
D|--------------------------------------------------------------------------------|
A|-------------3h4h5-5/8~---8/10~-10/12~ //////////-------------------------------|
D|-0-3--5h6h7---------------------------------------------------------------------|

All down, for the 'intro' of this tab, it is the last two notes of this tab,
the 15+17 bent and released in the same way, but held for longer
as you can hear on the tracks.

Thanks please rate and comment!
Tap to rate this tab
 
# A B C D E F G H I J K L M N O P Q R S T U V W X Y Z