Song name
# A B C D E F G H I J K L M N O P Q R S T U V W X Y Z

Muse - Plug In Baby tab

Author: Title:MUSE
Album: ORIGION OF SYMETRY
Transcribed by: Guy Collins
Email:guy.collins@talk21.com 



Standard Tuning 
(EADBGE) 


Intro:

E-----------------------------------------------------------------------
B-----------------------------------------------------------------------
G--------------------------------------9--11h12p11--9-------------------
D---8--9--11--8--9--11--12--9--11--12------------------12--11--9--11----
A-----------------------------------------------------------------------
E-----------------------------------------------------------------------



E-----------------------------------------------------------------------
B-----------------------------------------------------------------------
G------------------9----------9--11h12p11--10--11--10--11---------------
D---12--9--11--12-----11--12-------------------------------12--12-------
A-----------------------------------------------------------------------
E-----------------------------------------------------------------------



E-----------------------------------------------------------------------
B-----------------------------------------------------------------------
G---------------13--13^--11--10--11-------------------------------------
D---12--12--12-----------------------12--11--12-------------------------
A-----------------------------------------------------------------------
E-----------------------------------------------------------------------



E-----------------------------------------------------------------------
B-----------------------------------------------------------------------
G--------------------------------------9--11h12p11--9-------------------
D---8--9--11--8--9--11--12--9--11--12------------------12--11--9--11--12
A-----------------------------------------------------------------------
E-----------------------------------------------------------------------



E-----------------------------------------------------------------------
B-----------------------------------------------------------------------
G--------------9----------9--11h12p11--10--11--10--11-------------------
D---9--11--12-----11--12-------------------------------12--12--12-------
A-----------------------------------------------------------------------
E-----------------------------------------------------------------------



E-----------------------------------------------------------------------
B-----------------------------------------------------------------------
G-----------13--13^--11--10--11-----------------------------------------
D---12--12-----------------------12--11--12-----------------------------
A-----------------------------------------------------------------------
E-----------------------------------------------------------------------


I exposed your lies...
E-----------------------------------------------------------------------
B-----------------------------------------------------------------------
G--------------------------------------9--11h12p11--9-------------------
D---8--9--11--8--9--11--12--9--11--12------------------12--11--9--------
A-----------------------------------------------------------------------
E-----------------------------------------------------------------------
let ring 

Verse:
Now it's time... 
E---------17-----------r--18-----------r--19-----------r--17------------
B-------------19-------e------19-------e------20-------e------19--------
G-----------------19---s----------18---s----------19---s----------19----
D----------------------t---------------t---------------t----------------
A-----------------------------------------------------------------------
E-----------------------------------------------------------------------



Pre-Chorus:

E---------2-----2-----2-----2-----2-----2-----2-----2-----2-----2-------
B---------2-----2-----2-----2-----2-----2-----2-----2-----2-----2-------
G---------2-----2-----2-----2-----2-----2-----2-----2-----2-----2-------
D---------3-----3-----3-----3-----3-----3-----3-----3-----3-----3-------
A---------3-----3-----3-----3-----3-----3-----3-----3-----3-----3-------
E---------2-----2-----2-----2-----2-----2-----2-----2-----2-----2-------
pm......................................................... 


E---2-----2-----2-----2-----2-----2-------------------------------------
B---2-----2-----2-----2-----2-----2-------------------------------------
G---2-----2-----2-----2-----2-----2-------------------------------------
D---3-----3-----3-----3-----3-----3-------------------------------------
A---3-----3-----3-----3-----3-----3-------------------------------------
E---2-----2-----2-----2-----2-----2-------------------------------------
pm................................ 


Chorus:
My plug in baby... 
E------3-----3-----3-----3-----3-----3-----3-----3-----3-----3-----3----
B------3-----3-----3-----3-----3-----3-----3-----3-----3-----3-----3----
G------4-----4-----4-----4-----4-----4-----4-----4-----4-----4-----4----
D------5-----5-----5-----5-----5-----5-----5-----5-----5-----5-----5----
A------5-----5-----5-----5-----5-----5-----5-----5-----5-----5-----5----
E------3-----3-----3-----3-----3-----3-----3-----3-----3-----3-----3----



E------3-----3-----3-----3-----3-----2-----2-----2-----2-----2-----2----
B------3-----3-----3-----3-----3-----3-----3-----3-----3-----3-----3----
G------4-----4-----4-----4-----4-----4-----4-----4-----4-----4-----4----
D------5-----5-----5-----5-----5-----4-----4-----4-----4-----4-----4----
A------5-----5-----5-----5-----5-----2-----2-----2-----2-----2-----2----
E------3-----3-----3-----3-----3-----x-----x-----x-----x-----x-----x----



E------2-----2-----x-----x-----x-----x-----x-----x-----x-----x-----3----
B------3-----3-----2-----2-----2-----2-----2-----2-----2-----2-----3----
G------4-----4-----2-----2-----2-----2-----2-----2-----2-----2-----4----
D------4-----4-----2-----2-----2-----2-----2-----2-----2-----2-----5----
A------2-----2-----x-----x-----x-----x-----x-----x-----x-----x-----5----
E------x-----x-----2-----2-----2-----2-----2-----2-----2-----2-----3----



E------3-----3-----3-----3-----3-----3-----3-----3-----3-----3-----3----
B------3-----3-----3-----3-----3-----3-----3-----3-----3-----3-----3----
G------4-----4-----4-----4-----4-----4-----4-----4-----4-----4-----4----
D------5-----5-----5-----5-----5-----5-----5-----5-----5-----5-----5----
A------5-----5-----5-----5-----5-----5-----5-----5-----5-----5-----5----
E------3-----3-----3-----3-----3-----3-----3-----3-----3-----3-----3----



E------3-----3-----3-----3-----2-----2-----2-----2-----2-----2-----2----
B------3-----3-----3-----3-----3-----3-----3-----3-----3-----3-----3----
G------4-----4-----4-----4-----4-----4-----4-----4-----4-----4-----4----
D------5-----5-----5-----5-----4-----4-----4-----4-----4-----4-----4----
A------5-----5-----5-----5-----2-----2-----2-----2-----2-----2-----2----
E------3-----3-----3-----3-----x-----x-----x-----x-----x-----x-----x----



E------2-----x-----x-----x-----x-----x-----x-----x-----x-----3-----3----
B------3-----2-----2-----2-----2-----2-----2-----2-----2-----3-----3----
G------4-----2-----2-----2-----2-----2-----2-----2-----2-----4-----4----
D------4-----2-----2-----2-----2-----2-----2-----2-----2-----5-----5----
A------2-----x-----x-----x-----x-----x-----x-----x-----x-----5-----5----
E------x-----2-----2-----2-----2-----2-----2-----2-----2-----3-----3----



E------3-----3-----3-----3-----3-----3-----3-----3-----3-----3-----3----
B------3-----3-----3-----3-----3-----3-----3-----3-----3-----3-----3----
G------4-----4-----4-----4-----4-----4-----4-----4-----4-----4-----4----
D------5-----5-----5-----5-----5-----5-----5-----5-----5-----5-----5----
A------5-----5-----5-----5-----5-----5-----5-----5-----5-----5-----5----
E------3-----3-----3-----3-----3-----3-----3-----3-----3-----3-----3----



E------3-----3-----3-----2-----2-----2-----2-----2-----2-----2-----2----
B------3-----3-----3-----3-----3-----3-----3-----3-----3-----3-----3----
G------4-----4-----4-----4-----4-----4-----4-----4-----4-----4-----4----
D------5-----5-----5-----4-----4-----4-----4-----4-----4-----4-----4----
A------5-----5-----5-----2-----2-----2-----2-----2-----2-----2-----2----
E------3-----3-----3-----x-----x-----x-----x-----x-----x-----x-----x----



E------x-----x-----x-----x-----x-----x-----x-----x-----3-----3-----3----
B------2-----2-----2-----2-----2-----2-----2-----2-----3-----3-----3----
G------2-----2-----2-----2-----2-----2-----2-----2-----4-----4-----4----
D------2-----2-----2-----2-----2-----2-----2-----2-----5-----5-----5----
A------x-----x-----x-----x-----x-----x-----x-----x-----5-----5-----5----
E------2-----2-----2-----2-----2-----2-----2-----2-----3-----3-----3----



E------3-----3-----3-----3-----3-----3-----3-----3-----3-----3-----3----
B------3-----3-----3-----3-----3-----3-----3-----3-----3-----3-----3----
G------4-----4-----4-----4-----4-----4-----4-----4-----4-----4-----4----
D------5-----5-----5-----5-----5-----5-----5-----5-----5-----5-----5----
A------5-----5-----5-----5-----5-----5-----5-----5-----5-----5-----5----
E------3-----3-----3-----3-----3-----3-----3-----3-----3-----3-----3----



E------3-----3-----2-----2-----2-----2-----2-----2-----2-----2-----2----
B------3-----3-----3-----3-----3-----3-----3-----3-----3-----3-----3----
G------4-----4-----2-----2-----2-----2-----2-----2-----2-----2-----2----
D------5-----5-----0-----0-----0-----0-----0-----0-----0-----0-----0----
A------5-----5-----0-----0-----0-----0-----0-----0-----0-----0-----0----
E------3-----3-----x-----x-----x-----x-----x-----x-----x-----x-----x----



E------2-----2-----2-----2-----2-----2----------------------------------
B------3-----3-----3-----3-----3-----3----------------------------------
G------2-----2-----2-----2-----2-----2----------------------------------
D------0-----0-----0-----0-----0-----0----------------------------------
A------0-----0-----0-----0-----0-----0----------------------------------
E------x-----x-----x-----x-----x-----x----------------------------------

this is the basic order in which you play the tab

1.Inrto
2.Verse
3.Pre-chorus
4.Chorus
5.Intro
6.Verse
7.Pre-chorus
8.Chorus
9.Intro x2



========================================================================
== TABLATURE EXPLANATION ==
========================================================================

---------- ---------- ----t---
----5h8--- Hammeron ----(8)--- Ghost ----6--- Tap
---------- ---------- Note --------
----5p8--- Pulloff ---------- --------

---------- ---------- -----p--
----5/8--- Slide Up -----x---- Dead -----7-- Pop
---------- ---------- Note --s-----
----5\8--- Slide Down ---------- --5----- Slap 

---------- ||------|| Repeat --------
----5~~~-- Vibrato ||*----*|| ---5^--- Bend
---------- ||*----*|| --------
---------- ||------|| --------




Tap to rate this tab
 
# A B C D E F G H I J K L M N O P Q R S T U V W X Y Z