Song name
# A B C D E F G H I J K L M N O P Q R S T U V W X Y Z

Muse - Falling Down tab

Falling down
muse



| /  slide up
| \  slide down
| h  hammer-on
| p  pull-off                      
| ~  vibrato
| +  harmonic
| x  Mute note                  
     
  Verse
 
  e|-------------------------0------0------0-----------------------|
  B|----2--2-------2b3b2b----3--3-----3----3-----------------------|
  G|----2----2-0-----------0-2----2-----4--2-----------------------|
  D|----2--------------------4-------------3-----------------------|
  A|----0----------------------------------------------------------|
  E|---------------------------------------------------------------|

  e|------------------------------0--------0-------0------0------0-|
  B|------------------------------3---3------3-----3--3-----3----2-|
  G|---4b6b4b---2---2----4b6b-----1-----1-------1--2----2-----2--2-|
  D|--------------4---4-----------2----------------0-------------2-|
  A|------------------------------2----------------0-------------0-|
  E|------------------------------0--------------------------------|


  Chorus
  
these are all chords
but to make it easier 
for beginners,i put the 
name of the chord next to 
the tab, showing you where to press. 


  e|--2---------------|
  B|--2---------------|
  G|--2---------------|   F#m
  D|--2----------5----| 
  A|--2--------4------|
  E|--2---------------|
   
  
  e|--1---------------|
  B|--1---------------|
  G|--1-----2---------|   F
  D|--1----------4----| 
  A|--1--------3------|
  E|--1---------------|
     
   
  e|--0---------------|
  B|--2---------------|
  G|--2---------------|   A
  D|--2---------------| 
  A|--0---------------|
  E|------------------|
    
   
  e|------------------|
  B|--2---------------|
  G|----------4-------|   C#7
  D|------3-----------| 
  A|----------4-------|
  E|------------------|
    
   
  e|--2---------------|
  B|-----3------------|
  G|--2---------------|   D
  D|------------------| 
  A|------------------|
  E|------------------|

  
  e|-----2------------|
  B|--1---------------|    
  G|-----2------------|   D*
  D|--1---------------| 
  A|------------------|
  E|------------------|
    
  
  e|------------------|
  B|------------------|
  G|--1---------------|   E
  D|----2-------------| 
  A|----2-------------|
  E|------------------|
    
  
  e|------------------|
  B|-------3----------|
  G|--1---------------|   E7
  D|----2-------------| 
  A|----2-------------|
  E|------------------|
    
Tap to rate this tab
 
# A B C D E F G H I J K L M N O P Q R S T U V W X Y Z