Song name
# A B C D E F G H I J K L M N O P Q R S T U V W X Y Z

Muse - Coma tab

                                 MUSE-Coma
                               Album:B-sides
--------------------------------------------------------------------------------------------------
Tab By: Sam Jackson
E-mail:achavez267@gmail.com

b-bend
PM-palm mute
This should be 95% good


                 2x                                       2x
  E-------------------------------------------------------12b13--12-11-11--|
  B--3--333------7-----------------------------3--333----------------------|
  G--2--222------9b11---9-7-7---4--4-4---------2--222----------------------|
  D--0--000----------------------6----5-5------0--000----------------------|
  A------------------------------------5-----------------------------------|
  E------------------------------------------------------------------------|


  Matt uses an effect to his guitar but this part is in the background
                  REPEAT MORE 2x's
  E-------------------------------------------------------------------------|
  B-------------------------------------------------------------------------|
  G-444444-444444-----. ---7----77--77--77--77--77--77--66--66--77--77------|
  D-------------------. ---7--77--77--66--66--55--55--55--55--77--77--------|
  A------------------------5------------------------------------------------|
  E------------------------5------------------------------------------------|
                             DO THE PM part 3X'S Then
  E-------------------------------------------------------------------------|
  B-------------------------------------------------------------------------|
  G----77--77--77--77--6------77--77--77--77--77--77--66--66 . -------------|
  D--66--66--55--55---------77--77--66--66--55--55--55--55-- . -------------|
  A-------------------------------------------------------------------------|
  E-------------------------------------------------------------------------|
                         PM ................................

  E------------------------------------------------------------------------|
  B-----------------------------------3-33-(0)-00--0-----------------------|
  G---77--77--77--77--77--77--6~~-----2-22--3--33--4-- . ------------------|
  D-77--77--66--66--55--55------------0-00--2--22--2-- . --5----7----------|
  A-----------------------------------0-00--0--00--0-------5----7----------|
  E---------------------------------3----------------------3----5----------|
   PM.......................

    After that you repeat the song


  Outro:
  E-----------------------------------------------|
  B-------------3-333333333333---------17b19------|
  G-------------2-222222222222--------------------|
  D-5----7------0-000000000000--------------------|
  A-5----7----------------------------------------|
  E-3----5----------------------------------------|

   That's all, I hope this helps you everyone please rate thanks.

Lyrics:

Confide in me
Sustain all my empathy
YouŽre such a mess
You can learn to confess

You will not find it in me
Simply because I canŽt
Wake up and find it in me
IŽm in a coma
You will not find it in me
YouŽll reveal all your pains again

WeŽll fall asleep
So deeply out of reach
For years feeling dead
You can fall right out of bed

You will not find it in me
Simply because I canŽt
Wake up and find it in me
IŽm in a coma

You will not find it in me
YouŽll reveal all your pains again

Hey! such a mess and I don’t care
Simply because I can’t
Wake and find it in me
IŽm in a coma

You will not find it in me
YouŽll reveal all your pains again
Tap to rate this tab
 
# A B C D E F G H I J K L M N O P Q R S T U V W X Y Z