Song name
# A B C D E F G H I J K L M N O P Q R S T U V W X Y Z

Muse - Stockholm Syndrome tab

Band: Muse
Song: Stockholm Syndrome
Album: Absolution (2003)
Tuning: Drop D (eBGDAD)

This is my way of playing 'Stockholm Syndrome', and i think it sounds better. It's a great song.

Intro (distortion)

e|--------------------------------------|
B|--------------------------------------|
G|--------------------------------------|
D|--------------------------------------|
A|--------------------------------------|
D|-12-0-13-0-12-0-10-12-0-13-12-0-10-12-|

e|------------------------------------------|
B|------------------------------------------|
G|------------------------------------------|
D|------------------------------------------|
A|------------------------------------------|
D|0-0-12-13-0-12-0-10-12-0-13-12-0-16-17-16-|

e|------------------------------------------------------------------|
B|------------------------------------------------------------------|
G|------------------------------------------------------------------|
D|------------------------------------------------------------------|
A|------------------------------------------------------------------|
D|-12-0-13-0-12-0-10-12-0-13-12-12-0-3*-3*-3*-3*-3*-0-3*-3*-3*-3*-3*|

e|--------------------------------------|
B|--------------------------------------|
G|--------------------------------------|
D|--------------------------------------|
A|--------------------------------------|
D|-12-0-13-0-12-0-10-12-0-13-12-0-10-12-|
                                                    x3
e|------------------------------------------|
B|------------------------------------------|
G|------------------------------------------|
D|------------------------------------------|
A|------------------------------------------|
D|0-0-12-13-0-12-0-10-12-0-13-12-0-16-17-16-|

Then

e|-------------------------------------------------------------|
B|-------------------------------------------------------------|
G|-------------------------------------------------------------|
D|-------------------------------------------------------------|
A|-------------------------------------------------------------|
D|-12-0-13-0-12-0-10-12-0-13-12-0-10-12-0-13-12-0-10-12-13-12-0|

Verse (cleaner sound)

e|--------------------------------|--------------------------------|
B|--------------------------------|--------------------------------|
G|-7-7-7-7-7-7-7-7-7-7-7-7-7-7-7-7|-5-5-5-5-5-5-5-5-5-5-5-5-5-5-5-5|
D|-x-x-x-x-x-x-x-x-x-x-x-x-x-x-x-x|-x-x-x-x-x-x-x-x-x-x-x-x-x-x-x-x|
A|-5-5-5-5-5-5-5-5-5-5-5-5-5-5-5-5|-3-3-3-3-3-3-3-3-3-3-3-3-3-3-3-3|
D|--------------------------------|--------------------------------|

e|--------------------------------|--------------------------------|
B|--------------------------------|--------------------------------|
G|-4-4-4-4-4-4-4-4-4-4-4-4-4-4-4-4|-3-3-3-3-3-3-3-3-3-3-3-3-3-3-3-3|
D|-x-x-x-x-x-x-x-x-x-x-x-x-x-x-x-x|-x-x-x-x-x-x-x-x-x-x-x-x-x-x-x-x|
A|-2-2-2-2-2-2-2-2-2-2-2-2-2-2-2-2|-1-1-1-1-1-1-1-1-1-1-1-1-1-1-1-1|
D|--------------------------------|--------------------------------|

e|--------------------------------|--------------------------------|
B|--------------------------------|--------------------------------|
G|-7-7-7-7-7-7-7-7-7-7-7-7-7-7-7-7|-6-6-6-6-6-6-6-6-6-6-6-6-6-6-6-6|
D|-x-x-x-x-x-x-x-x-x-x-x-x-x-x-x-x|-x-x-x-x-x-x-x-x-x-x-x-x-x-x-x-x|
A|-5-5-5-5-5-5-5-5-5-5-5-5-5-5-5-5|-4-4-4-4-4-4-4-4-4-4-4-4-4-4-4-4|
D|--------------------------------|--------------------------------|

e|--------------------------------|--------------------------------|
B|--------------------------------|--------------------------------|
G|-5-5-5-5-5-5-5-5-5-5-5-5-5-5-5-5|-7-7-7-7-7-7-7-7-7-7-7-7-7-7-7-7|
D|-x-x-x-x-x-x-x-x-x-x-x-x-x-x-x-x|-x-x-x-x-x-x-x-x-x-x-x-x-x-x-x-x|
A|-3-3-3-3-3-3-3-3-3-3-3-3-3-3-3-3|-5-5-5-5-5-5-5-5-5-5-5-5-5-5-5-5|
D|--------------------------------|--------------------------------|

e|------------------------------------------------|
B|------------------------------------------------|
G|-15-15-15-15-15-15-15-15-15-15-15-15-15-15-15-15|
D|-x--x--x--x--x--x--x--x--x--x--x--x--x--x--x--x-|
A|-13-13-13-13-13-13-13-13-13-13-13-13-13-13-13-13|
D|------------------------------------------------|

e|------------------------------------------------|
B|------------------------------------------------|
G|-14-14-14-14-14-14-14-14-14-14-14-14-14-14-14-14|
D|-x--x--x--x--x--x--x--x--x--x--x--x--x--x--x--x-|
A|-12-12-12-12-12-12-12-12-12-12-12-12-12-12-12-12|
D|------------------------------------------------|

e|------------------------------------------------|
B|------------------------------------------------|
G|-12-12-12-12-12-12-12-12-12-12-12-12-12-12-12-12|
D|-x--x--x--x--x--x--x--x--x--x--x--x--x--x--x--x-|
A|-10-10-10-10-10-10-10-10-10-10-10-10-10-10-10-10|
D|------------------------------------------------|

e|------------------------------------------------|
B|------------------------------------------------|
G|-12-12-12-12-12-12-12-12-12-12-12-12-12-12-12-12|
D|-x--x--x--x--x--x--x--x--x--x--x--x--x--x--x--x-|
A|-10-10-10-10-10-10-10-10-10-10-10-10-10-10-10-10|
D|------------------------------------------------|

e|------------------------------------------------|
B|------------------------------------------------|
G|-12-12-12-12-12-12-12-12-12-12-12-12-12-12-12-12|
D|-x--x--x--x--x--x--x--x--x--x--x--x--x--x--x--x-|
A|-10-10-10-10-10-10-10-10-10-10-10-10-10-10-10-10|
D|------------------------------------------------|

e|------------------------------------------------|
B|------------------------------------------------|
G|-14-14-14-14-14-14-14-14-14-14-14-14-14-14-14-14|
D|-x--x--x--x--x--x--x--x--x--x--x--x--x--x--x--x-|
A|-12-12-12-12-12-12-12-12-12-12-12-12-12-12-12-12|
D|------------------------------------------------|

e|------------------------------------------------|
B|------------------------------------------------|
G|-14-14-14-14-14-14-14-14-14-14-14-14-14-14-14-14|
D|-x--x--x--x--x--x--x--x--x--x--x--x--x--x--x--x-|
A|-12-12-12-12-12-12-12-12-12-12-12-12-12-12-12-12|
D|------------------------------------------------|

e|------------------------------------------------|
B|------------------------------------------------|
G|-14-14-14-14-14-14-14-14-14-14-14-14-14-14-14-14|
D|-x--x--x--x--x--x--x--x--x--x--x--x--x--x--x--x-|
A|-12-12-12-12-12-12-12-12-12-12-12-12-12-12-12-12|
D|------------------------------------------------|

e|--------------------------------|--------------|
B|--------------------------------|--------------|
G|-2-2-2-2-2-2-2-2-2-2-2-2-2-2-2-2|--------------|
D|-2-2-2-2-2-2-2-2-2-2-2-2-2-2-2-2|x-x-5----4----|
A|-0-0-0-0-0-0-0-0-0-0-0-0-0-0-0-0|x-x-5----4----|
D|--------------------------------|x-x-5----4----|

e|----------------|
B|----------------|
G|----------------|   x4
D|-3-3-3-3-3-3-3-3|
A|-3-3-3-3-3-3-3-3|
D|-3-3-3-3-3-3-3-3|

Chorus (with some funky effects)

e|-1-1-1-1-1-1-1-1|-1-1-1-1-1-1-1-1|----------------|----------------|
B|-1-1-1-1-1-1-1-1|-1-1-1-1-1-1-1-1|-2-2-2-2-2-2-2-2|-2-2-2-2-2-2-2-2|
G|-2-2-2-2-2-2-2-2|-2-2-2-2-2-2-2-2|-2-2-2-2-2-2-2-2|-2-2-2-2-2-2-2-2|
D|-3-3-3-3-3-3-3-3|-3-3-3-3-3-3-3-3|-2-2-2-2-2-2-2-2|-2-2-2-2-2-2-2-2|
A|----------------|----------------|-0-0-0-0-0-0-0-0|-0-0-0-0-0-0-0-0|
D|----------------|----------------|----------------|----------------|
                                                                        x2
e|-1-1-1-1-1-1-1-1|-1-1-1-1-1-1-1-1|-1-1-1-1-1-1-1-1|-1-1-1-1-1-1-1-1|
B|-3-3-3-3-3-3-3-3|-3-3-3-3-3-3-3-3|-3-3-3-3-3-3-3-3|-3-3-3-3-3-3-3-3|
G|-2-2-2-2-2-2-2-2|-2-2-2-2-2-2-2-2|-2-2-2-2-2-2-2-2|-2-2-2-2-2-2-2-2|  
D|-0-0-0-0-0-0-0-0|-0-0-0-0-0-0-0-0|-0-0-0-0-0-0-0-0|-0-0-0-0-0-0-0-0|
A|----------------|----------------|----------------|----------------|
D|----------------|----------------|----------------|----------------|

e|----------------|----------------|
B|-3-3-3-3-3-3-3-3|-3-3-3-3-3-3-3-3|
G|-3-3-3-3-3-3-3-3|-3-3-3-3-3-3-3-3|
D|-3-3-3-3-3-3-3-3|-3-3-3-3-3-3-3-3|
A|-1-1-1-1-1-1-1-1|-1-1-1-1-1-1-1-1|
D|----------------|----------------|

Then

e--------------------------------|----------------------------|
B--------------------------------|----------------------------|
G--------------------------------|----------------------------|
D-3-3-3-3-3-3-3-3-6-6-6-6-6-6-6-6|-7-7-7-7-7-7-7-7-10-10-10-10|
A-3-3-3-3-3-3-3-3-6-6-6-6-6-6-6-6|-7-7-7-7-7-7-7-7-10-10-10-10|
D-3-3-3-3-3-3-3-3-6-6-6-6-6-6-6-6|-7-7-7-7-7-7-7-7-10-10-10-10|

(After frst chorus)

e|--------------------------------------|---------------|
B|--------------------------------------|---------------|
G|--------------------------------------|---------------|
D|--------------------------------------|---------------|
A|--------------------------------------|---------------|
D|-12-0-13-0-12-0-10-12-0-13-12-0-10-12-|-3*-3*-3*-3*-3*|

(After second chorus)

e|--------------------------------------|
B|--------------------------------------|
G|--------------------------------------|
D|--------------------------------------|
A|--------------------------------------|
D|-12-0-13-0-12-0-10-12-0-13-12-0-10-12-|

e|------------------------------------------|
B|------------------------------------------|
G|------------------------------------------|
D|------------------------------------------|
A|------------------------------------------|
D|0-0-12-13-0-12-0-10-12-0-13-12-0-16-17-16-|

e|------------------------------------------------------------------|
B|------------------------------------------------------------------|
G|------------------------------------------------------------------|
D|------------------------------------------------------------------|
A|------------------------------------------------------------------|
D|-12-0-13-0-12-0-10-12-0-13-12-12-0-3*-3*-3*-3*-3*-0-3*-3*-3*-3*-3*|

e|---------------------------------------------|
B|---------------------------------------------|
G|---------------------------------------------|
D|---------------------------------------------|  x4
A|---------------------------------------------|
D|-12-13-12-10-12-13-12-10-12-13-12-10-12-13-12|

Solo

e|----------------------------------------|
B|----------------------------------------|
G|----------------------------------------|
D|----------------------------------------|
A|-13-13-10-10--13-13-10-10--13-13-10-10--|
D|----------------------------------------|

e|--------------------------------|--------------------------------|
B|--------------------------------|--------------------------------|
G|--------------------------------|--------------------------------|
D|--------------------------------|--------------------------------|
A|-12-12-9-9--12-12-9-9--12-12-9-9|-10-10-7-7--10-10-7-7--10-10-7-7|
D|--------------------------------|--------------------------------|

e|----------------------|
B|----------------------|
G|----------------------|
D|----------------------|
A|-10-10-6-6--10-10-6-6-|
D|----------------------|

e|-----------------------------------|
B|-----------------------------------|
G|-----------------------------------|
D|-----------------------------------|      x3
A|-12-0-13-0-12-10-12-0-13-12-0-10-12|
D|-----------------------------------|

  PM|-----|
e|----------------|
B|----------------|
G|----------------|
D|-4-4-4-4--5--4--|
A|-4-4-4-4--5--4--|
D|-4-4-4-4--5--4--|

Back to Chorus

End riff

e|---------------------------|
B|---------------------------|
G|---------------------------|
D|---------------------------|  x6
A|---------------------------|
D|-0--0--13--0--12--0--10--12|

e|-----------------|
B|-----------------|
G|-----------------|
D|-----------------|
A|-0--------------x|
D|-0--------------x|

Thats it. whoo
Tap to rate this tab
# A B C D E F G H I J K L M N O P Q R S T U V W X Y Z