Muse - Prague tab

Tuning: Standard


Heavy distortion

e|------------------------------------------------|
B|------------------------------------------------|\
G|-5--5--5--5--5--5--5--5-------------------------| \ 
D|-5--5--5--5--5--5--5--5--5--5--5--5--5--5--5--5-|  Repeat
A|-3--3--3--3--3--3--3--3--5--5--5--5--5--5--5--5-| /
E|-------------------------3--3--3--3--3--3--3--3-|/


Thats pretty much the whole song, except for the very end:

e|---------|--------------|
B|---------|-- ad. lib ---|
G|---6b----|-- feedback --|
D|---------|-- w/ whammy -|
A|---------|--------------|
E|---------|--------------|



Very basic song, great to improvise over

Enjoy!!
Tap to rate this tab
 
# A B C D E F G H I J K L M N O P Q R S T U V W X Y Z