Song name
# A B C D E F G H I J K L M N O P Q R S T U V W X Y Z

Muse - Stockholm Syndrome Live tab

Artist: MUSE
Song: Stockholm Syndrome
Tabbed by: Shredd Guitarist

This is the live outro that 
Mat Bellamy played at Wembley 
in 2007 it can seen on muse's
H.A.A.R.P DVD and it's a great
little outro to learn and it
puts the finishing touch on 
Stockholm syndrome.I put this tab up 
because there is not one like it yet and
 when I tried to learn this no one had
 a tab to help me out. But that's Okay because 
I'm saving you tonnes of time by tabbing this.
                                           Shredd Guitarist

e----------------------------------------------------------------------------
B----------------------------------------------------------------------------
G----------------------------------------------------------------------------
D----------------------------------------------------------------------------
A-0-0-13-0-12-0-10-12-0-0-13-0-12-0-10-12-0-0-13-0-12-0-10-12-0-0-13-0-12-12b
D-0-0-13-0-12-0-10-12-0-0-13-0-12-0-10-12-0-0-13-0-12-0-10-12-0-0-13-0-12-12b

X 2 Then
This part has crazy effects and a proximity sensor 
but goes something like this. 
e-------------------------------------------------------14b-----|  
B---------------------------------------------------------------|
G-15~~~-13-14p13--12h13p12-10h12p10-8-10-876-654-432-1~---------|  
D---------------------------------------------------------------|
A---------------------------------------------------------------|
D---------------------------------------------------------------|        
~~~=infinite sustain + proximity sensor 
Instead of bending 14 Matt gets 
high pitch feedback from his amp and uses 
some built in effects to lower and heighten 
the frequency of the feedback.   

Then

e-----------15b------------------------------------------------|
B------------------------------14b-----------------------------|
G-------------------------------------------12h13b-------------|
D--------------------------------------------------------------|
A-------------------------5h6b---------------------------------|
D-0-0-3-00-------0-0-3-00----------0-0-3-00-------0-0-3-00-----|

e----------------------------------------|
B----------------------------------------|
G----------------------------------------|
D----------------------------------------|
A-12-12-12-12-12-12-12-------------------|
D-13-13-13-13-13-13-13--0-0-3-0----------|    X4 Then

e-------------------------------------------------------------------------|
B-14b-14b-14b-14b-14b-----------------------------------------------------|
G-13b-13b-13b-13b-13b-13--------------------------------------------------|
D-13b-13b-13b-13b-13b-13--------X4-Then----0-3-0-6-0-4-00-3-0-5*5*5*5*----|
A-------------------------------------------------------------------------|
D------------------------0-0-3-0--------3b--------------------------------|

e------------------------------------------------------------|
B------------------------------------------------------------|
G---------------------x-x-x-x-x-x-x-x-x-x-x------------------|
D--0-3-0-6-0-4-00-3-0-x-x-x-x-x-x-x-x-x-x-x------------------|
A---------------------x-x-x-x-x-x-x-x-x-x-x-4----------------|
D---------------------x-x-x-x-x-x-x-x-x-x-x-4----------------|

e------------------------------------------------------------|
B------------------------------------------------------------|
G------------------------------------------------------------|
D-0-3-0-6-0-4-00-3-0-66---0-3-0-6-0-4-0----------------------|
A---------------------------------------6b-------------------|
D------------------------------------------------------------|

e-----------------------------------------------|
B-----------------------------------------------|
G-----------------------------------------------|
D-----------------------------------------------|
A--0-3-0-6-0-4-00-3-0-66------------------------|
D--0-3-0-6-0-4-00-3-0-66------------------------|


e-------------------------------------------------------------|
B-------------------------------------------------------------|
G-------------------------------------------------------------|
D---------------------10-10-10-10-10-10-10-10-12b-------------|
A--0-3-0-6-0-4-00-3-0-----------------------------------------|
D--0-3-0-6-0-4-00-3-0-----------------------------------------|


e------------------------------------------------------------------|
B------------------------------------------------------------------|
G---------------------12/13-13-13-13-13-13-13-13-------------------|
D---------------------12/13-13-13-13-13-13-13-13-------------------|
A--0-3-0-6-0-4-00-3-0-11/12-12-12-12-12-12-12-12-------------------|
D--0-3-0-6-0-4-00-3-0----------------------------------------------|
                         (Not sure about this part.)


e---------------------15-15-15-15-15-15-15-15-----------|
B---------------------15-15-15-15-15-15-15-15-----------|
G-------------------------------------------------------|
D-------------------------------------------------------|
A--0-3-0-6-0-4-00-3-0-----------------------------------|
D--0-3-0-6-0-4-00-3-0-----------------------------------|


e-----------------------------------------------|
B-----------------------------------------------|
G----------------------66666b-------------------|
D----------------------66666b-------------------|
A--0-3-0-6-0-4-00-3-0---------------------------|
D--0-3-0-6-0-4-00-3-0---------------------------|


e-----------------------------------------------|
B-----------------------------------------------|
G-----------------------------------------------|
D-----------------------------------------------|
A--0-3-0-6--------------------------------------|
D--0-3-0-6--------------------------------------|

Then there's a bit where it's impossible to tab 
because it's all Manson brand effects and would sound no 
where near otherwise, but feel free 
to watch the DVD and try to work it out.  
After the effects goes... 

e---------------------------------------------|
B---------------------------------------------|
G-------5-5-5---------------------------------|
D-------5-5-5---------------------------------|
A-2-2-2-------X11-----------------------------|    
D-2-2-2---------------------------------------|

For each note here you start with your whammy bar
pushed down and when you bend the 
note you pull it back up. 
Play around with this to get it right
e------------------------------------------|
B------------------------------------------|
G------------------------------------------|
D------------------------------------------|
A--1b-2b-3b-4b-5b-6b-7b-8b-9b--------------|
D-----------------------------12b~---------|

Matt then just does whatever and it ends with 
medium range feedback from amp.

And there you have it! For just an outro this
took hours to figure out!
Some of it may be wrong And if you work 
out the wrong parts please let me know via E-mail: Shredd_guitarist@hotmail.com
Enjoy!

|b|= Bend
|*|= Harmonic
|h|= hammer-on
|p|= Pull-off
|~|= Vibrato
|~~~|= Infinite sustain
Tap to rate this tab
 
# A B C D E F G H I J K L M N O P Q R S T U V W X Y Z