Song name
# A B C D E F G H I J K L M N O P Q R S T U V W X Y Z

Muse - Time Is Running Out. tab

Artist: Muse
Album: Absolution
Song: Time is running out.


E---------------------------------------------------------------------
B---------------------------------------------------------------------
G---------------------------------------------------------------------
D---------------------------------------------------------------------
A-----------------------------5-5-6-----7-----7-7--------3------5-5---
E---5-5-8-5-5-8-8-5-7-7-5-7-7-------0-0---0-0-----0-1-1-----1-3-----3-

VERSE 1: I THINK I'M DROWNING........

E--------------------------------------------------------------------
B--------------------------------------------------------------------
G--------------------------------------------------------------------
D--------------------------------------------------------------------
A---------------------------5-5-6-----7------7-7--------3----5-5-----
E-5-5-8-5-5-8-8-5-7-7-5-7-7-------0-0----0-0-----0-1-1---1-3-----3-5-



E---------------------------------------------------------------------
B---------------------------------------------------------------------
G---------------------------------------------------------------------
D---------------------------------------------------------------------
A-------------------------5-5-6-----7----7-7--------3-----5-5---------
E-5-8-5-5-8-8-5-7-7-5-7-7-------0-0--0-0------0-1-1---1-3-----3-5-5---


E---------------------------------------------------------------------
B---------------------------------------------------------------------
G---------------------------------------------------------------------
D---------------------------------------------------------------------
A-----------------------5-5-6----7----7-7-------3-----5-5-------------
E-8-5-5-8-8-5-7-7-5-7-7-------0-0--0-0----0-1-1---1-3-----3-----------



CHORUS: I WON'T LET YOU BURY IT............

E---------------------------------------------------------------------
B-0-0-0-1-1-1-1-1-1-1-3-3-1-1-0-0-0-0-0-1-1-1-1-1-1-1-3-3-1-1-0-0-----
G-2-2-2-2-2-2-2-2-0-0-0-0-0-0-0-0-2-2-2-2-2-2-2-2-0-0-0-0-0-0-0-0-----
D-3-3-3-3-3-3-3-3-0-0-0-0-0-0-0-0-2-2-2-2-2-2-2-2-2-2-2-2-2-2-2-2-----
A---------------------------------------------------------------------
E---------------------------------------------------------------------


E---------------------------------------------------------------------
B-0-0-0-1-1-1-1-1-1-1-3-3-1-1-0-0-0-0-0-1-1-1-1-1---------------------
G-2-2-2-2-2-2-2-2-0-0-0-0-0-0-0-0-2-2-2-2-2-2-2-2----12-12-10-10-9-9--
D-3-3-3-3-3-3-3-3-0-0-0-0-0-0-0-0-2-2-2-2-2-2-2-2---------------------
A----------------------------------------------------10-10-8--8--7-7--
E---------------------------------------------------------------------


AND OUR TIME IS RUNNING OUT..........

E---------------------------------------------------------------------
B-------------------------------------------------6-6-6-5-5-5-5-5-----
G-9-9-9-10-10-10-10-10-10-10-7-7-9-9-10-10--------5-5-5-5-5-5-5-5-----
D-10-10-10-10-10-10-10-10-10-10-10-10-10-10-10-10-7-7-7-7-7-7-7-7-----
A-8-8-8-8-8-8-8-8-10-10-10-10-10-10-10-10---------7-7-7-7-7-7-7-7-----
E-8-8-8-8-8-8-8-8---------------------------------5-5-5-5-5-5-5-5-----


E-----------------------------------------------------------------------------
B-----------------------------------------------------------------------------
G-------12-12-10-10-9-9----9--9--9--10----10-10-10-10-10-10-7--7--9--9-10-10--
D--10----------------------10-10-10-10----10-10-10-10-10-10-10-10-10-10-10-10-
A--10---10-10-8-8-7-7------8-8-8-8--------8-8-8-8--10-10-10-10-10-10-10-10----
E--8-----------------------8-8-8-8----8-8-8-8---------------------------------


E
B-6-6-6-5-5-5-5-5-----------------------------12-------8--5-----------
G-5-5-5-5-5-5-5-5-----------------------------------------------------
D-7-7-7-7-7-7-7-7-----3--3---------0--0--------9-------5--2-----------
A-7-7-7-7-7-7-7-7------------3-----------0----------------------------
E-5-5-5-5-5-5-5-5-----1--1------1--3--3-----3-------------------------


E--11-------8--5-----4--------7---12------13-------10----7------------
B---------------------------------------------------------------------
G--8--------5--2-----1--------4---9-------10-------7-----4------------
D---------------------------------------------------------------------
A---------------------------------------------------------------------
E---------------------------------------------------------------------


VERSE 2: I WANTED FREEDOM............

E---------------------------------------------------------------------
B---------------------------------------------------------------------
G---------------------------------------------------------------------
D---------------------------------------------------------------------
A----------3----------------------------------------------------7-----
E-5---5--------5---------------7---7-----5--7-----------0---0-------0-



E---------------------------------------------------------------------
B---------------------------------------------------------------------
G---------------------------------------------------------------------
D-3--3-----------5--5-------------------------------------------------
A-------3-------------5------------3----------------------------------
E-1--1-----1--1--3--3---3----5--5-----5---------------7--7---5--7-----



E---------------------------------------------------------------------
B---------------------------------------------------------------------
G---------------------------------------------------------------------
D----------------3---3-------5-5--------------------------------------
A------7----------------3--------5---------3--------------------------
E-0-0-----0------1---1-----1-3-3---3---5-5---5-------7--7--5--7-------



PRE CHORUS: I WON'T LET YOU BURY IT...........

E---------------------------------------------------------------------
B------------------------------------0-0-0-1-1-1-1-1-1-1-3-3-1-1-0-0--
G------------------------------------2-2-2-2-2-2-2-2-0-0-0-0-0-0-0-0--
D------------------------------------3-3-3-3-3-3-3-3-0-0-0-0-0-0-0-0--
A-------7---------------3--------5------------------------------------
E--0-0-----0-------1-1-----1-3-3---3----------------------------------


CHROUS: AND OUR TIME IS RUNNING OUT...........

E---------------------------------------------------------------------
B-0-0-0-1-1-1-1-1-1-1-3-3-1-1-0-0-0-0-0-1-1-1-1-1-1-1-3-3-1-1-0-0-----
G-2-2-2-2-2-2-2-2-0-0-0-0-0-0-0-0-2-2-2-2-2-2-2-2-0-0-0-0-0-0-0-0-----
D-2-2-2-2-2-2-2-2-2-2-2-2-2-2-2-2-3-3-3-3-3-3-3-3-0-0-0-0-0-0-0-0-----
A---------------------------------------------------------------------
E---------------------------------------------------------------------



E---------------------------------------------------------------------
B-0-0-0-1-1-1-1-1-----------------------------------------------------
G-2-2-2-2-2-2-2-2------12-12-10-10-9-9--9-9-9-10--10---10--10--10-----
D-2-2-2-2-2-2-2-2----------------------10-10--10--10-10-10-10--10-----
A----------------------10-10-8--8--7-7--8-8---8---8--8--8--8---8------
E---------------------------------------8-8---8---8--8--8--8---8------



E---------------------------------------------------------------------
B---------------------------6--6--6-5--5--5--5--5---------------------
G-10-10--7--7--9--9--10-10--5--5--5-5--5--5--5--5-----12-12-10-10-9-9-
D-10-10-10--10-10-10-10-10--7--7--7-7--7--7--7--7--10-----------------
A-10-10-10--10-10-10-10-10--7--7--7-7--7--7--7--7--10-10-10-8--8--7-7-
E---------------------------5--5--5-5--5--5--5--5--8------------------


E---------------------------------------------------------------------
B-------------------------------------------------6-6-6-5-5-5-5-5-----
G-9--9--9--10-10-10-10-10-10-10--7--7--9--9-10-10-5-5-5-5-5-5-5-5-----
D-10-10-10-10-10-10-10-10-10-10-10-10-10-10-10-10-7-7-7-7-7-7-7-7-----
A-8--8--8--8--8--8--8--8--10-10-10-10-10-10-10-10-7-7-7-7-7-7-7-7-----
E-8--8--8--8--8--8--8--8--------------------------5-5-5-5-5-5-5-5-----



E---------------------------1-1-1-1-1-1-1-0-0-0-0-0-0-0-0-0-----------
B------------------------0--3-3-3-3-3-3-3-0-1-1-1-1-1-1-1-0-----------
G------12--12-10--10-9---0--2-2-2-2-2-2-2-0-2-2-2-2-2-2-2-0-----------
D-10---------------------0--0-0-0-0-0-0-0-0-2-2-2-2-2-2-2-0-----------
A-10---10--10--8--8--7---0----------------0-0-0-0-0-0-0-0-0-----------
E-8-------------------------------------------------------------------


OOH, OOH, OOH, YEAH, YEAH, YEAH, YEAH, YEAH......................


E-1-1-1-1-1-1-1-0-0-0-0-0-0-0-0-0------1-1-1-1-1-1-1-0-----------------
B-3-3-3-3-3-3-3-0-1-1-1-1-1-1-1-0------3-3-3-3-3-3-3-0-----------------
G-2-2-2-2-2-2-2-0-2-2-2-2-2-2-2-0------2-2-2-2-2-2-2-0-----------------
D-0-0-0-0-0-0-0-0-2-2-2-2-2-2-2-0------0-0-0-0-0-0-0-0-----------------
A---------------0-0-0-0-0-0-0-0-0--------------------0-----------------
E----------------------------------------------------------------------


E-0--0--0--0--0-0-0-0------------0--0--------0--0--------0--0--------0--0-
B-1--1--1--1--1-1-1-1------------0--0--------0--0--------0--0--------0--0-
G-0--0--0--0--0-0-0-0---0--1--1--1--1--1--1--1--1--1--1--1--1--1--1--1--1-
D-2--2--2--2--2-2-2-2---0--2--2--2--2--2--2--2--2--2--2--2--2--2--2--2--2-
A-0--0--0--0--0-0-0-0---0--2--2--------2--2--------2--2--------2--2-------
E-----------------------0--0--0--------0--0--------0--0--------0--0-------


E---------------------------------------------------------------------
B---------------------------------------------------------------------
G---------------------------------------------------------------------
D---------------------------------------------------------------------
A---------------------------5-5-6-----7------7-7-------3-----5-5------
E-5-5-8-5-5-8-8-5-7-7-5-7-7-------0-0----0-0-----0-1-1---1-3------3---


E-12----8-12----8-12----8-11----8-11----8-11----7-10-----7-10----7-8------8-10----8-10-
B----10------10------10------10------10------9--------9--------9-----10-12-----12------
G--------------------------------------------------------------------------------------
D--------------------------------------------------------------------------------------
A--------------------------------------------------------------------------------------
E--------------------------------------------------------------------------------------

REPEAT THE BIT ABOVE TWICE AND END THE SONG. 
Tap to rate this tab
 
# A B C D E F G H I J K L M N O P Q R S T U V W X Y Z