Muse - Supermassive Black Hole Live tab

-------------------------------------------------------------------------------
	              supermassive black hole live - muse
-------------------------------------------------------------------------------


Tabbed by:xXguirtarproXx
Email:

Tuning:Standard E:A:D:G:B:e
                                

e|----------------------------------------------------------------------------|
B|----------------------------------------------------------------------------|
G|--9~~~~~~p7h9p7h9p7h9p7h9~~~~~p7h9b-p7\4~~4\2h4b-p2p0h2p0-------------------|
D|------------------------------------------------------------2p0h2-----------|
A|----------------------------------------------------------------------------|
E|----------------------------------------------------------------------------|

e|----------------------------------------------------------------------------|
B|----------------------------------------------------------------------------|
G|----------------------------------------------------------------------------|
D|----------------------------------------------------------------------------|
A|---x----x-x-x----x-x-x----x-------------------------------------------------|
E|---x----x-x-x----x-x-x----x-------------------------------------------------|


Riff 1:

e|----------------------------------------------------------------------------|
B|----------------------------------------------------------------------------|
G|----------------------------------------------------------------------------|
D|----------------------------------------------------------------------------|
A|-------10b-------------------10---------------------------10b---------------|
E|---0-0---------0-----0--0-------------0-----0--0-------0----------0----0--0-|

e|----------------------------------------------------------------------------|
B|----------------------------------------------------------------------------|
G|----------------------------------------------------------------------------|
D|-------------------10--10--9------------------------------------------------|
A|-----10----------------------------------10b----------------10--------------|
E|-------------0----------------------0----------0-----0--0---------0---------|

e|----------------------------------------------------------------------------|
B|----------------------------------------------------------------------------|
G|----------------------------------------------------------------------------|
D|--10---10--9----------------------------------------------------------------|
A|-------------------10b----------------10-----------------12b-p10h12p10------|
E|---------------0---------0-----0--0---------0--------------------------h12--|


Main Riff: 

e|----------------------------------------------------------------------------|
B|----------------------------------------------------------------------------|
G|----------------------------------------------------------------------------|
D|----------------------------------------------------------------------------|
A|--------10-------------------------10-----------7--7--5--------10-----------|
E|--0--0--------0--0--3--3--3---0--0------0--0----5--5--3---0--0-------0--0---|


e|----------------------------------------------------------------------------|
B|----------------------------------------------------------------------------|
G|----------------------------------------------------------------------------|
D|----------------------------------------------------------------------------|
A|-----------------10--------7--7--8--------10------------------------7--7--5-|
E|-3--3--3----0--0-------0---5--5--6---0--0-----0--0---3--3--3--0--0--5--5--3-|

e|----------------------------------------------------------------------------|
B|----------------------------------------------------------------------------|
G|----------------------------------------------------------------------------|
D|----------------------------------------------------------------------------|
A|-------10---------------------------10----------12b-p10h12p10---------------|
E|--0--0------0--0---3--3--3----0--0-------0---------------------h12----------|

Verse1 play this like the main riff but just palm mute:

e|----------------------------------------------------------------------------|
B|----------------------------------------------------------------------------|
G|----------------------------------------------------------------------------|
D|----------------------------------------------------------------------------|
A|--------10-------------------------10-----------7--7--5--------10-----------|
E|--0--0--------0--0--3--3--3---0--0------0--0----5--5--3---0--0-------0--0---|


e|----------------------------------------------------------------------------|
B|----------------------------------------------------------------------------|
G|----------------------------------------------------------------------------|
D|----------------------------------------------------------------------------|
A|-----------------10--------7--7--8--------10------------------------7--7--5-|
E|-3--3--3----0--0-------0---5--5--6---0--0-----0--0---3--3--3--0--0--5--5--3-|

e|----------------------------------------------------------------------------|
B|----------------------------------------------------------------------------|
G|----------------------------------------------------------------------------|
D|----------------------------------------------------------------------------|
A|-------10---------------------------10--------------------------------------|
E|--0--0------0--0---3--3--3----0--0-------0-------12b------------------------|

Chorus -  You play the Main Chorus Riff four times in each chorus,
 each time followed by a different ending:
 1st - Ending 1, 2nd - Ending 2, 3rd - Ending 1 and 4th - Ending 3.

Main Chorus Riff:

e|----------------------------------------------------------------------------|
B|----------------------------------------------------------------------------|
G|----------------------------------------------------------------------------|
D|--------7--------7--7-----------5---------------------------9--------8-7--5-|
A|----------------------------------------------------------------------------|
E|--5--5-----5--5--------4--3--3-----3--3--3--3--5--5-6--7--7----7--7---------|

e|----------------------------------------------------------------------------|
B|------------------------------------------7b--7b--7b------------------------|
G|------------------------------------------9b--9b--9b------------------------|
D|----------------------------------------------------------------------------|
A|---------------------2-2-2-4-4-5-5-6----------------------------------------|
E|--0-0-0-2-2-3-3-4----0-0-0-2-2-3-3-4----------------------------------------|
    - - Ending 1 - - - - - Ending 2 - - - - - - Ending 3 - - -
   [----------------] [--------------]  [----------------------]

Verse 2 - 

e|----------------------------------------------------------------------------|
B|----------------------------------------------------------------------------|
G|----------------------------------------------------------------------------|
D|----------------------------------------------------------------------------|
A|-----10b~~~~-----12b~~-12~~12~~~12b------10----------------------10---------|
E|--0-----------0---------------------0--0-----0--0--3--3--3---0--0----0--0---|
                                                                           
e|----------------------------------------------------------------------------|
B|----------------------------------------------------------------------------|
G|----------------------------------------------------------------------------|
D|----------------------------------------------------------------------------|
A|------7--7--5--------10-------------------------12b-------------------------|
E|------5--5--3---0--0-----0--0---3--3--3--0--0-------------------------------|


Chorus:

e|----------------------------------------------------------------------------|
B|----------------------------------------------------------------------------|
G|----------------------------------------------------------------------------|
D|--------7--------7--7-----------5---------------------------9--------8-7--5-|
A|----------------------------------------------------------------------------|
E|--5--5-----5--5--------4--3--3-----3--3--3--3--5--5-6--7--7----7--7---------|

e|----------------------------------------------------------------------------|
B|------------------------------------------7b--7b--7b------------------------|
G|------------------------------------------9b--9b--9b------------------------|
D|----------------------------------------------------------------------------|
A|---------------------2-2-2-4-4-5-5-6----------------------------------------|
E|--0-0-0-2-2-3-3-4----0-0-0-2-2-3-3-4----------------------------------------|
    - - Ending 1 - - - - - Ending 2 - - - - - - Ending 3 - - -
   [----------------] [--------------]  [----------------------]



Verse 3 - "Supermassive Black Hole...": Play this riff 4 times.

e|----------------------------------------------------------------------------|
B|----------------------------------------------------------------------------|
G|----------------------------------------------------------------------------|
D|----------------------------------------------------------------------------|
A|--7----5-----------------------------------5--6-----------------------------|
E|----------7--6--5--3--0--x--0--3--5--6--7-----------------------------------|



kaoss pad soloet:


Solo: The first part of the live solo is done on a Kaoss Pad but I can tab
 the second part.

e|----------------------------------------------------------------------------|
B|-7b--7b--7b-7b-7b---7b-7b-7b-7b---------------------------------------------|
G|-9b--9b--9b-9b-9b---9b-9b-9b-9b-9--7--------7h9p7---------------------------|
D|--------------------------------------9--9-------9--7--9--7--9b------7--4~~~|
A|----------------------------------------------------------------------------|
E|----------------------------------------------------------------------------|

 Chorus:B: Riff:play this Chorus twice then go straight
                    into the main chorus.

e|----------------------------------------------------------------------------|
B|----------------------------------------------------------------------------|
G|----------------------------------------------------------------------------|
D|--7-7-7-7-7-7-7-7-6-5-5-5-5-5-5-----7-7-8-9-9-9-9-9-9-9-9--8-7--5-----------|
A|--7-7-7-7-7-7-7-7-6-5-5-5-5-5-5-----7-7-8-9-9-9-9-9-9-9-9-------------------|
E|--5-5-5-5-5-5-5-5-4-3-3-3-3-3-3-----5-5-6-7-7-7-7-7-7-7-7-------------------|


e|----------------------------------------------------------------------------|
B|------------------------------------------7b--7b--7b------------------------|
G|------------------------------------------9b--9b--9b------------------------|
D|----------------------------------------------------------------------------|
A|---------------------2-2-2-4-4-5-5-6----------------------------------------|
E|--0-0-0-2-2-3-3-4----0-0-0-2-2-3-3-4----------------------------------------|
    - - Ending 1 - - - - - Ending 2 - - - - - - Ending 3 - - -
   [----------------] [--------------]  [----------------------]

  main chorus:

e|----------------------------------------------------------------------------|
B|----------------------------------------------------------------------------|
G|----------------------------------------------------------------------------|
D|--------7--------7--7-----------5---------------------------9--------8-7--5-|
A|----------------------------------------------------------------------------|
E|--5--5-----5--5--------4--3--3-----3--3--3--3--5--5-6--7--7----7--7---------|

e|----------------------------------------------------------------------------|
B|------------------------------------------7b--7b--7b------------------------|
G|------------------------------------------9b--9b--9b------------------------|
D|----------------------------------------------------------------------------|
A|---------------------2-2-2-4-4-5-5-6----------------------------------------|
E|--0-0-0-2-2-3-3-4----0-0-0-2-2-3-3-4----------------------------------------|
    - - Ending 1 - - - - - Ending 2 - - - - - - Ending 3 - - -
   [----------------] [--------------]  [----------------------]


outro: "Supermassive Black Hole...": you play this riff 4 times but theres
 a diffrent ending on the 3rd time.

e|----------------------------------------------------------------------------|
B|----------------------------------------------------------------------------|
G|----------------------------------------------------------------------------|
D|----------------------------------------------------------------------------|
A|------------------------------5-7-------------------------------------------|
E|--0---1---2---3---4---5---6-7-----------------------------------------------|
 
e|----------------------------------------------------------------------------|
B|----------------------------------------------------------------------------|
G|----------------------------------------------------------------------------|
D|----------------------------------------------------------------------------|
A|--2---3---4---5---6---7---8-9--5-7------------------------------------------|
E|--0---1---2---3---4---5---6-7-----------------------------------------------|

  i am shore that is all 100% right plz rate as this is my first tab i have done:)
    hope u all enjoy it
Tap to rate this tab
 
# A B C D E F G H I J K L M N O P Q R S T U V W X Y Z