Song name
# A B C D E F G H I J K L M N O P Q R S T U V W X Y Z

Muse - Map Of Your Head tab

Everyone got the intro high part wrong so i fixed it 
to sound just like the song itself.


Standard Tuning

Verse/Chorus:
                    
e|----9--9-----------5-5-7---------|
B|----10---10---10---7-6-----------|
G|----9-------9------7-7-----------|
D|------------------0--------------|
A|--0------------------------------|
E|---------------------------------|

   
e|----9--9-------------0--0----------2--2-----------5-5-7----|
B|----10---10---10-----0----0---0----2----2---------7-6------|
G|----9-------9--------1------1------2------2-------7-7------|
D|---------------------2-------------4--------4---0----------|
A|--0------------------2-------------4-----------------------|
E|-------------------0-------------2-------------------------|
Tap to rate this tab
# A B C D E F G H I J K L M N O P Q R S T U V W X Y Z