Song name
# A B C D E F G H I J K L M N O P Q R S T U V W X Y Z

Muse - Hyper Music tab

Help us improve GuitareTab! Take a short survey!
Hyper Music 
e|--------------------|
B|--------------------|
G|----17--------------|
D|----16-16-17-16-15--|
A|----17-14-15-14-13--|
D|--0-----------------|


Intro part 2 / Chorus:
 
e|---------------------------|
B|----6-----------6----------|
G|----5-----------5----------|
D|----4-----------4-4-5-4-3--|
A|----5-----3-5---5-2-3-2-1--|
D|--0---3-5-----0------------|



Verse 1: Strum these Chords

e|--10--8--7--6--|
B|--10-10--8--8--|
G|--10--9--7--7--|
D|---------------|
A|---------------|
D|---------------|



Verse 2:

e|--10-------10-------10----8------8------8----7-----7-----7---6-----6-----6----|
B|-----10-------10-------10---10-----10-----10---8-----8-----8---8-----8-----8--|
G|--------10-------10------------9------9----------7-----7---------7-----7------|
D|------------------------------------------------------------------------------|
A|------------------------------------------------------------------------------|
D|------------------------------------------------------------------------------|
Related for Hyper Music tab