Song name
# A B C D E F G H I J K L M N O P Q R S T U V W X Y Z

Muse - Supermassive Black Hole tab

Title: Supermassive Black Hole
Artist: Muse
Tabbed By: Tommy Cartmell

Listen to the song to get the timing and stuff

INTRO
E|-------------------------|----------------------------------|
B|-------------------------|----------------------------------|
G|-------------------------|----------------------------------|
D|-------------------------|---------------------------10h12--|
A|---10b----------10b------|---10b----------10b---10-12-----10|
E|-0-----0--0-0-0----0--0-0|-0-----0--0-0-0----0--------------|
 |-----------x3------------|----------------x1----------------|
VERSE
E|---------------------------------|-------------------------------|
B|---------------------------------|-------------------------------|
G|---------------------------------|-------------------------------|
D|-----------5--5------------7-7--5|-----------5--5------------7--8|
A|--10b------5--5---10b------7-7--5|--10b------5--5---10b------7--8|
E|-0----0-0--3--3--0----0-0--5-5--3|-0----0-0--3--3--0----0-0--5--6|
 |-------------------------------x1--------------------------------|

E|---------------------------------|-----------------------|
B|---------------------------------|-----------------------|
G|---------------------------------|-----------------------|
D|-----------5--5------------7-7--5|-----------5--5--------|
A|--10b------5--5---10b------7-7--5|--10b------5--5---10b--|
E|-0----0-0--3--3--0----0-0--5-5--3|-0----0-0--3--3--0----0|
 |--------------------------x1-----------------------------|

E|-------------|
B|-------------|
G|-------------|
D|------10h12--| <-------(This bit I`m not sure of)
A|-10-12-----10|
E|-------------|
 |------x1-----|
(Repeat the above once)
CHORUS
E|-----------------------------------------------------|
B|-----------------------------------------------------|
G|-----------------------------------------------------|
D|----7----7-7-6-5--5-5-5-5----5-5-5-5----4-4--5-5--6-6|
A|----------------------------------------4-4--5-5--6-6|
E|-5-5--5-5--------3-----3--2-3---3-3-3---2-2--3-3--4-4|
 |------------------------x3---------------------------|

E|--------------------------------------|
B|--------------------------------------|
G|--------------------------------------|
D|----7----7-7-6-5--5-5-5-5----5-5-5-5--| 
A|--------------------------------------|
E|-5-5--5-5--------3-----3--2-3---3-3-3-|
 |------------------------x1------------|



VERSE 2
E|-----------------------|
B|-----------------------|
G|-----------------------|
D|-----------------------|
A|---10b~------------11b~|
E|-0---------------0-----|
 |----------x1-----------|
INTERLUDE `SUPERMASSIVE BLACK HOLE`
E|-------------------------|--------------------|
B|-------------------------|--------------------|
G|-------------------------|--------------------|
D|-------------------------|--------------------|
A|---10b----------10b------|---10b----------10b-|
E|-0-----0--0-0-0----0--0-0|-0-----0--0-0-0----0|
 |-----------x3------------|----------x1--------|

 ---------------------END-------------------------------

Tap to rate this tab
# A B C D E F G H I J K L M N O P Q R S T U V W X Y Z