Song name
# A B C D E F G H I J K L M N O P Q R S T U V W X Y Z

Muse - Space Dementia tab

----------------------------------------------------------------------------
			Space Dementia - Muse
----------------------------------------------------------------------------
Tabbed by:dorris
Email:cleandirt2001@hotmai.com

Comments:im not takin any credit for this cuz its from the book but rate it

(IM JUST WRITIN WAT IT SAYS IN THE BOOK SO THERES NO GTR. TILL NEAR THE END) 

(5:11)its not accurate timing
e|-------------------------------------------------------------------------|
B|-------------------------------------------------------------------------|
G|-----------------------------------------------4-------------------------|
D|--2-------5------10-------9------8\4-------------------2------2-----4^---|
A|-----------------------------------------------2-------2-----------------|
E|--0-------3------8--------7------6\2-------------------0-----------------|

e|----------------------------------------|
B|----------------------------------------|
G|---------------------------------0------|
D|---------2----2-----1------------2------|
A|---------------------------------2------|
E|---------------------------------0------|

| /  slide up
| \  slide down
| h  hammer-on
| p  pull-off
| ~  vibrato
| +  harmonic
| x  Mute note
============================================================================
Tap to rate this tab
# A B C D E F G H I J K L M N O P Q R S T U V W X Y Z