Song name
# A B C D E F G H I J K L M N O P Q R S T U V W X Y Z

Muse - Madness tab

MUSE - MADNESS SOLO

Standard tuning (EADGBE)

  W           E E E E   Q     E  E    Q +S  a S S  S  S  S  Q   E 
                                                
E|-----------|-----------------------|-----------------------------|
B|-13b15-----|-------11-13b15--13-11-|-13--13b15r13p11-13p11-11~---|
G|-----------|-----10----------------|-----------------------------|
D|-----------|---12------------------|-----------------------------|
A|-----------|-----------------------|-----------------------------|
E|-----------|-----------------------|---------------------------6=|

  H       E.    E.  E    S  S S S  S S S  S S S  S S S  S S S

E|----------------------|------18-----18-----16-----16-----15---|
B|---------13b15-13--11-|---------------------------------------|
G|----------------------|-12-13--12-13--12-13--12-13--12-13--12-|
D|----------------------|---------------------------------------|
A|-w/bar----------------|---------------------------------------|
E|-(6)\\----------------|---------------------------------------|

  S S S  S S S  S S S  S S S  S S S  S   H.     +S S S S   W

E|---15-----13-----13--------------------|------------8---|--------|
B|------------------------16-----16------|-15~------------|--------|
G|-13--12-13--12-13--12-13--12-13--12-13-|----------8---8-|-w/bar--|
D|---------------------------------------|----------------|-5\\----|
A|---------------------------------------|----------------|--------|
E|---------------------------------------|----------------|--------|

Legend: 
b = bend
r = release bend
h = hammer
p = pulloff
\\ = whammy bar dive
~ = Vibrato
W = Whole note
H = Half note
Q = Quarter note
E = Eighth note
S = Sixteenth
a = acciaccatura
+ denotes a tie
Tap to rate this tab
# A B C D E F G H I J K L M N O P Q R S T U V W X Y Z