Song name
# A B C D E F G H I J K L M N O P Q R S T U V W X Y Z

Muse - Supremacy tab

Title: Supremacy
Artist: Muse
Album: The 2nd Law
Words: Mathew Bellamy
Music: Mathew Bellamy
Copyright: He-3 and Warner
Tabber: Jack Rayment
Tempo = 160
6 string version! :) Make sure to read the instructions and rate fairly cheers!

Legend
L - tied note
x - dead note
h - hammer on/pull off
b - bend
s - slide
~ - vibrato
g - ghost note
> - accentuated note
t - trill
M - palm mute
. - staccato
P - popping (bass)
S - slapping (bass)
+ - tapping
W - wide vibrato
< - fade in
w - whammy bar
= - tremolo picking
v - brush up
^ - brush down
V - pick stroke up
n - pick stroke down


E |----------------------------------------|
B |----------------------------------------|
G |--------------------2--2--2--2----------|
D |--x--x--x--x----------------------------|
A |--x--x--x--x--------0--0--0--0----------|
A |--x--x--x--x----------------------------|


----------------------------------------|
----------------------------------------|
--------------------4--4--4--4----------|
--x--x--x--x----------------------------|
--x--x--x--x--------2--2--2--2----------|
--x--x--x--x----------------------------|


----------------------------------------|
----------------------------------------|
--------------------5--5--5--5----------|
--x--x--x--x----------------------------|
--x--x--x--x--------3--3--3--3----------|
--x--x--x--x----------------------------|


----------------------------------------|
----------------------------------------|
--------------------7--7--7--7----------|
--x--x--x--x----------------------------|
--x--x--x--x--------5--5--5--5----------|
--x--x--x--x----------------------------|


----------------------------------------------------|
----------------------------------------------------|
----------------------------------------------------|
----------------------------------------------------|
----------------------------------------------------|
--0--------3--------0--------7--------0--------8L---|


----------------------------------------------------|
----------------------------------------------------|
----------------------------------------------------|
----------------------------------------------------|
----------------------------------------------------|
--8-----0--------7--------0--------0--10-11-12------|


----------------------------------------------------|
----------------------------------------------------|
----------------------------------------------------|
----------------------------------------------------|
----------------------------------------------------|
--0--------3--------0--------7--------0--------8L---|


----------------------------------------------------|
----------------------------------------------------|
----------------------------------------------------|
----------------------------------------------------|
----------------------------------------------------|
--8-----0--------7--------0-----10-11-12-15---------|


----------------------------------------------------|
----------------------------------------------------|
----------------------------------------------------|
----------------------------------------------------|
----------------------------------------------------|
--0--------3--------0--------7--------0--------8L---|


----------------------------------------------------|
----------------------------------------------------|
----------------------------------------------------|
----------------------------------------------------|
----------------------------------------------------|
--8-----0--------7--------0--------0--10-11-12------|


----------------------------------------------------|
----------------------------------------------------|
----------------------------------------------------|
----------------------------------------------------|
----------------------------------------------------|
--0--------3--------0--------7--------0--------8L---|


----------------------------------------------------|
----------------------------------------------------|
----------------------------------------------------|
----------------------------------------------------|
----------------------------------------------------|
--8-----0--------7--------0-----10-11-12-15---------|


----------------------------------------------------|
----------------------------------------------------|
----------------------------------------------------|
----------------------------------------------------|
----------------------------------------------------|
--0--------3--------0--------7--------0--------8L---|


----------------------------------------------------|
----------------------------------------------------|
----------------------------------------------------|
----------------------------------------------------|
----------------------------------------------------|
--8-----0--------7--------0--------0--10-11-12------|


----------------------------------------------------|
----------------------------------------------------|
----------------------------------------------------|
----------------------------------------------------|
--------0--0--0--0--------2--2--2--2--------3--3----|
--0-----------------0-----------------0-------------|


----------------------------------------------------|----|----|----|----|----|
----------------------------------------------------|----|----|----|----|----|
----------------------------------------------------|----|----|----|----|----|
----------------------------------------------------|----|----|----|----|----|
--3--3--------5--5--5--5--------6--6--6--6--6--6----|----|----|----|----|----|
--------0-----------------0-------------------------|----|----|----|----|----|


----|----|----|----|----|----|----|----|----|----|----|----|----|----|----|----|
----|----|----|----|----|----|----|----|----|----|----|----|----|----|----|----|
----|----|----|----|----|----|----|----|----|----|----|----|----|----|----|----|
----|----|----|----|----|----|----|----|----|----|----|----|----|----|----|----|
----|----|----|----|----|----|----|----|----|----|----|----|----|----|----|----|
----|----|----|----|----|----|----|----|----|----|----|----|----|----|----|----|


----|----|----|----|----|----------------------------------------------------|
----|----|----|----|----|----------------------------------------------------|
----|----|----|----|----|----------------------------------------------------|
----|----|----|----|----|----------------------------------------------------|
----|----|----|----|----|----------------------------------------------------|
----|----|----|----|----|--0--------3--------0--------7--------0--------8L---|


----------------------------------------------------|
----------------------------------------------------|
----------------------------------------------------|
----------------------------------------------------|
----------------------------------------------------|
--8-----0--------7--------0--------0--10-11-12------|


----------------------------------------------------|
----------------------------------------------------|
----------------------------------------------------|
----------------------------------------------------|
----------------------------------------------------|
--0--------3--------0--------7--------0--------8L---|


----------------------------------------------------|
----------------------------------------------------|
----------------------------------------------------|
----------------------------------------------------|
----------------------------------------------------|
--8-----0--------7--------0-----10-11-12-15---------|


----------------------------------------------------|
----------------------------------------------------|
----------------------------------------------------|
----------------------------------------------------|
----------------------------------------------------|
--0--------3--------0--------7--------0--------8L---|


----------------------------------------------------|
----------------------------------------------------|
----------------------------------------------------|
----------------------------------------------------|
----------------------------------------------------|
--8-----0--------7--------0--------0--10-11-12------|


----------------------------------------------------|
----------------------------------------------------|
----------------------------------------------------|
----------------------------------------------------|
--------0--0--0--0--------2--2--2--2--------3--3----|
--0-----------------0-----------------0-------------|


----------------------------------------------------|----|----|
----------------------------------------------------|----|----|
----------------------------------------------------|----|----|
----------------------------------------------------|----|----|
--3--3--------5--5--5--5--------6--6--6--6--6--6----|----|----|
--------0-----------------0-------------------------|----|----|


----------------------------|
----------------------------|
--9-------------------------|
-----------10-7-------------|
-----------------------7----|
----------------------------|


----------------------------------------------------------------------------|
----------------------------------------------------------------------------|
-----------------------------9--------7-------------------------------------|
--7--------9--------10-------------------------10-------9h-10h9--7----------|
----------------------------------------------------------------------------|
----------------------------------------------------------------------------|


----------------------------|-------|----------------------------|
----------------------------|-------|----------------------------|
----------------------------|-------|--7-------------------------|
--9--------6--2L------------|--2----|-----------7----------------|
----------------------------|-------|--------------8--------0----|
----------------------------|-------|----------------------------|


----------------------------------------------------------------------------|
----------------------------------------------------------------------------|
-----------------------------9--------7-------------------------------------|
-----------------------------------------------10-------9h-10h9--7----------|
--5--------7--------8-------------------------------------------------------|
----------------------------------------------------------------------------|


-------|----------------|----------------------------|
-------|----------------|----------------------------|
-------|----------------|--9-------------------------|
--10L--|--10------------|-----------10-7-------------|
-------|----------------|-----------------------7----|
-------|----------------|----------------------------|


----------------------------------------------------------------------------|
----------------------------------------------------------------------------|
-----------------------------9--------7-------------------------------------|
--7--------9--------10-------------------------10-------9h-10h9--7----------|
----------------------------------------------------------------------------|
----------------------------------------------------------------------------|


----------------------------|-------|----------------------------|
----------------------------|-------|----------------------------|
----------------------------|-------|--7-------------------------|
--9--------6--2L------------|--2----|-----------7----------------|
----------------------------|-------|--------------8--------0----|
----------------------------|-------|----------------------------|


----------------------------------------------------------------------------|
----------------------------------------------------------------------------|
-----------------------------9--------7-------------------------------------|
-----------------------------------------------10-------9h-10h9--7----------|
--5--------7--------8-------------------------------------------------------|
----------------------------------------------------------------------------|


-------|----------------|-------|----------------|-------|-------|-------|
-------|----------------|-------|----------------|-------|-------|-------|
-------|----------------|--10---|--12----10-9----|--9----|--9----|--10---|
--10L--|--10------------|-------|----------------|-------|-------|-------|
-------|----------------|-------|----------------|-------|-------|-------|
-------|----------------|-------|----------------|-------|-------|-------|


----------------|-------|-------|
----------------|-------|-------|
--10----12-14---|--14---|--13---|
----------------|-------|-------|
----------------|-------|-------|
----------------|-------|-------|


----------------------------------------------------|
----------------------------------------------------|
--------------------2--2--2--2----------------------|
--x--x--x--x--------------------------x--x--x--x----|
--x--x--x--x--------0--0--0--0--------x--x--x--x----|
--x--x--x--x--------------------------x--x--x--x----|


----------------------------------------------------|
----------------------------------------------------|
--------4--4--4--4--------------------------5--5----|
--------------------------x--x--x--x----------------|
--------2--2--2--2--------x--x--x--x--------3--3----|
--------------------------x--x--x--x----------------|


----------------------------------------------------|
----------------------------------------------------|
--5--5--------------------------7--7--7--7----------|
--------------x--x--x--x----------------------------|
--3--3--------x--x--x--x--------5--5--5--5----------|
--------------x--x--x--x----------------------------|


----------------------------------------------------------------------------|
----------------------------------------------------------------------------|
--12-13-14-17----------------12-------12-13-14-17----------------12---------|
--------------------12-13-14----------------------------12-13-14------------|
----------------------------------------------------------------------------|
----------------------------------------------------------------------------|


----------------------------------------------------------------------------|
----------------------------------------------------------------------------|
--12-13-14-13-12-13-14-13-14-17-------12-13-14-17----------------12---------|
--------------------------------------------------------12-13-14------------|
----------------------------------------------------------------------------|
----------------------------------------------------------------------------|


----------------------------------------------------|
----------------------------------------------------|
--12-13-14-17----------------12-------12-13-14-17L--|
--------------------12-13-14------------------------|
----------------------------------------------------|
----------------------------------------------------|


----------------------------------------------------|
----------------------------------------------------|
--17----12-13-14-17-------12-13-14-19-------12-13---|
----------------------------------------------------|
----------------------------------------------------|
----------------------------------------------------|


-----------------------12----------------15---------|
----------------------------------------------------|
--14-20-------12-13-14----------12-13-14------------|
----------------------------------------------------|
----------------------------------------------------|
----------------------------------------------------|


----------------------------------------------------|
----------------------------------------------------|
--14-17-14-17-14-17-14-17-14-17-14-17-14-17-14-17---|
----------------------------------------------------|
----------------------------------------------------|
----------------------------------------------------|


----------------------------------------------------|
----------------------------------------------------|
-----5-----5-----5-----5-----5-----5-----5-----5----|
--7-----7-----7-----7-----7-----7-----7-----7-------|
----------------------------------------------------|
----------------------------------------------------|


----------------------------------------------------|
----------------------------------------------------|
----------------------------------------------------|
----------------------------------------------------|
----------------------------------------------------|
--0--------3b-------0--------7b-------0--------8L---|


----------------------------------------------------|
----------------------------------------------------|
----------------------------------------------------|
----------------------------------------------------|
----------------------------------------------------|
--8-----0--------7--------0--------0--10-11-12------|


----------------------------------------------------|
----------------------------------------------------|
----------------------------------------------------|
----------------------------------------------------|
----------------------------------------------------|
--0--------3--------0--------7--------0--------8L---|


----------------------------------------------------|
----------------------------------------------------|
----------------------------------------------------|
----------------------------------------------------|
----------------------------------------------------|
--8-----0--------7--------0-----10-11-12-15---------|


----------------------------------------------------|
----------------------------------------------------|
----------------------------------------------------|
----------------------------------------------------|
--------0--0--0--0--------2--2--2--2--------3--3----|
--0-----------------0-----------------0-------------|


----------------------------------------------------|----|----|----||
----------------------------------------------------|----|----|----||
----------------------------------------------------|----|----|----||
----------------------------------------------------|----|----|----||
--3--3--------5--5--5--5--------6>-6>-6>-6>-6>-6>---|----|----|----||
--------0-----------------0-------------------------|----|----|----||
Tap to rate this tab
# A B C D E F G H I J K L M N O P Q R S T U V W X Y Z