Song name
# A B C D E F G H I J K L M N O P Q R S T U V W X Y Z

Muse - Panic Station tab

-------------------------------------------------------------------------------
                             Muse - Panic Station Solo
-------------------------------------------------------------------------------
Tabbed by: Kable95
Tuning: Standard

|------------------------------------|--------------------------------|
|------------------------------------|--------------------------------|
|------------------------------------|--------------------------------| 3x
|------------------------------------|--------------------------------|
|------------------------------------|--------------------------------|
|-12-0-11-0-10-0-9-0-8-0-7-0-6-7---0-|-0-12-0-11-0-10-0-9-0-8-0-6-7---|

|------------------------------------|---------------------------------------|
|------------------------------------|------------------------------------12-|
|------------------------------------|---------------------------------12----| 
|------------------------------------|---------------------------------------|
|------------------------------------|---------------------------------------|
|-12-0-11-0-10-0-9-0-8-0-7-0-6-7---0-|-0-12-0-11-0-10-0-9-0-8-0-6-7----------|

|------------------------------------------|------------------------------------------|
|------------------------------12-------12-|------------------------------12-------14-|
|-----12------------------12---------12----|-----12------------------12---------14----|
|----------14--------14--------------------|----------12--------12--------------------|
|---------------14-------------------------|---------------14-------------------------|
|------------------------------------------|------------------------------------------|
                                                                                       > 4x
|------------------------------------------|------------------------------------------|
|------------------------------14-------13-|------------------------------13-------12-|
|-----14------------------14---------12----|-----12------------------12---------12----|
|----------14--------14--------------------|----------14--------14--------------------|
|---------------16-------------------------|---------------15-------------------------|
|------------------------------------------|------------------------------------------|



************************************

| /   slide up
| \   slide down
| h   hammer-on
| p   pull-off
| ~   vibrato
| +   harmonic
| x   Mute note
| b   Bend
| pb  Pre-bend
| br  Bend release
| pbr Pre-bend release
| brb Bend release bend

************************************
Tap to rate this tab
# A B C D E F G H I J K L M N O P Q R S T U V W X Y Z