Song name
# A B C D E F G H I J K L M N O P Q R S T U V W X Y Z

Muse - Panic Station tab

Chorus
E|-------------------------------|-------------------------------|
B|-------------------------------|-------------------------------|
G|-------------------------------|-------------------------------|
D|---14--14-14--14---14---14-14--|--14--14-14--14---14---14-14---|
A|-------------------------------|-------------------------------|
E|---12--12-12--12---12---12-12--|--12--12-12--12---12---12-12---|

E|---12--12-12--12---12---12-12--|--12--12-12--12---12---12-12---|
B|---12--12-12--12---12---12-12--|--12--12-12--12---12---12-12---|
G|---12--12-12--12---12---12-12--|--12--12-12--12---12---12-12---|
D|---14--14-14--14---14---14-14--|--14--14-14--14---14---14-14---|
A|-------------------------------|-------------------------------|
E|-------------------------------|-------------------------------|

Pre Verse/Verse
E|---------------------------------|---------------------------------|
B|---------------------------------|---------------------------------|
G|---------------------12----------|--------------------12-----------|
D|------------12-13-14----14-12-14-|-----------12-13-14----14-12-14--|
A|---14-12-14----------------------|---14-12-14----------------------|
E|-12------------------------------|-12------------------------------|

E|---------------------------------|------------------------------------|
B|---------------------------------|--12-12-12-12---14-14-14-14-14-14---|
G|---------------------12----------|--12-12-12-12---14-14-14-14-14-14---|
D|------------12-13-14----14-12-14-|--12-12-12-12---14-14-14-14-14-14---|
A|---14-12-14----------------------|------------------------------------|
E|-12------------------------------|------------------------------------|


Break/Solo Type thing
E|--------------------------------|
B|--------------------------------|
G|--------------------------------|
D|--------------------------------|x8
A|--------------------------------|
E|-12-0-11-0-10-0-9-0-8-0-7-0-3-0-|


E|-------------------------------------------------------------------------|
B|-12-12----------12-12-12----------12-14-14----------14-13-13----------13-|
G|------12------12--------12------12--------14------14--------12------12---|
D|--------14--14------------12--12------------14--14------------14--14-----|
A|----------14----------------14----------------16----------------15-------|
E|-------------------------------------------------------------------------|
Repeat 4 times

E|--------------------------------------------|
B|---17-----12--15------12--14---10--13-------|
G|---19b----14b-17b-----14b-16b--12b-15b------|x2
D|--------------------------------------------|
A|--------------------------------------------|
E|--------------------------------------------|



I know this isnt 100% but its something. Its a really simple song so basically do what 
you want with it.
I've done a cover of this tab if you want to check it out:
http://www.youtube.com/watch?v=IVYsC0YTLjI&feature=g-upl
Tap to rate this tab
# A B C D E F G H I J K L M N O P Q R S T U V W X Y Z