Song name
# A B C D E F G H I J K L M N O P Q R S T U V W X Y Z

Muse - The 2nd Law Unsustainable tab

This is just my version of how to play it, i appreciate there are many ways to play this song.

Drop the low E down to A

Intro string Part:
E|-------------------------------------------------|
B|-------------------------------------------------|
G|-------------------------------------------------|
D|-------------------------------------------------|
A|-12-12-12-12-15-12-12-12-12-12-12-12-15-12-12-12-|
A|-------------------------------------------------|

E|--------------------------------------------------|
B|--------------------------------------------------|
G|--------------------------------------------------|
D|--------------------------------------------------| repeat
A|-12-12-12-12-15-12-12-12-17-12-15-12-14-12-11-11--|
A|--------------------------------------------------|


Verse
E|--------------------------------------------------------------------------|
B|--------------------------------------------------------------------------|
G|--------5----9---10------12-----14------16------------14----12--10--10----|
D|--7--------------------------------------------14-------------------------|
A|--------------------------------------------------------------------------|
A|--------------------------------------------------------------------------|

E|-------------------------------------------------|
B|-------------------------------------------------|
G|-------------------------------------------------|
D|-10-10-10-10-13-10-10-10-10-10-10-10-13-10-10-10-|
A|-------------------------------------------------|
A|-------------------------------------------------|

E|-------------------------------------------------|
B|-------------------------------------------------|
G|-------------------------------------------------|
D|-10-10-10-10-13-10-10-10-15-10-13-10-12-10-9-9---|
A|-------------------------------------------------|
A|-------------------------------------------------|

E|------------------------------------------------------------------------|
B|------------------------------------------------------------------------|
G|--------5----9---10--------10---9---------14---12--10--10---------------|
D|----7-------------------------------------------------------------------|
A|-----------------8---------8----7---------12---10--8---8---------12~----|
A|------------------------------------------------------------------------|



Dubstep Part: Use a digitech whammy for the effects
*=whammy +1 oct
                   *       *  *  *
E|-----------------------------------|--------------------------------|
B|-----------------10--10--10-10-10--|--------------------------------|
G|-----------------------------------|--------------------------------|
D|-----------------------------------|--------------------------------|
A|-----------------------------------|---------1-1-1--1-1-1b---1b-1b--|
A|-0/-12-\0----0---------------------|-0/-12\-------------------------|

For the next sounds you can either:
1 - run your pick across the strings in a circular motion
2 - 3 very quick pick slides up the fret board
                                                  *
E|-------------------------------------|-------------------------|
B|--x/-x/-x/----------------N-----N----|-------------------------|
G|--x/-x/-x/----------------N-----N----|-------------------------|
D|--x/-x/-x/---------------------------|----------H7^^^^^^^^-----|
A|-------------------------------------|-------------------------|
A|------------12-\0----0-------0-------|-0/-12\------------------|
N - Hit strings about the nut
H - Natural Harmonic
^ - Whammy bar dips

Repeat, only change the second time around is there are less whammy dips in the last bar.

And those are all the parts you need, after the first dubstep break i play verse part
(On the record the guitar part is doing silly octave whammy stuff which isnt that fun to
play) If you wanna check out my cover 
here:http://www.youtube.com/watch?v=Dq_S9462GXE&feature=g-upl, you can see how this tab works.

Hope it helps!




E|-------------------------------------|
B|-------------------------------------|
G|-------------------------------------|
D|-------------------------------------|
A|-------------------------------------|
A|-------------------------------------|
Tap to rate this tab
# A B C D E F G H I J K L M N O P Q R S T U V W X Y Z