Song name
# A B C D E F G H I J K L M N O P Q R S T U V W X Y Z

Muse - Supremacy tab

Drop Low E down to A

Intro:
E|-------------------------------------------------------------------------|
B|-------------------------------------------------------------------------|
G|-x-x-x-x--2-2-2-2--x-x-x-x--4-4-4-4--x-x-x-x--5-5-5-5--x-x-x-x--7-7-7-7--|
D|-x-x-x-x-----------------------------------------------------------------|
A|-x-x-x-x--0-0-0-0--x-x-x-x--2-2-2-2--x-x-x-x--3-3-3-3--x-x-x-x--5-5-5-5--|
A|-------------------------------------------------------------------------|

Main Riff
E|--------------------------------------------|
B|--------------------------------------------|
G|--------------------------------------------|
D|--------------------------------------------|
A|--------------------------------------------|
A|--0--3--0--7--0--8--0--7--0---0-10-11-12----|

E|--------------------------------------------|
B|--------------------------------------------|
G|--------------------------------------------|
D|--------------------------------------------| x2
A|--------------------------------------------|
A|--0--3--0--7--0--8--0--7--0--10-11-12-15----|

E|--------------------------------------------|
B|--------------------------------------------|
G|--------------------------------------------|
D|--------------------------------------------|
A|--------------------------------------------|
A|--0--3--0--7--0--8--0--7--0---0-10-11-12----|

E|-----------------------------------------------------------------|
B|-----------------------------------------------------------------|
G|----14-14-14-14-----16-16-16-16-----17-17-17-17-----19-19-19-19--|
D|-----------------------------------------------------------------|
A|----12-12-12-12-----14-14-14-14-----15-15-15-15-----17-17-17-17--|
A|-0---------------0---------------0---------------0---------------|

E|------------------------|
B|------------------------|
G|-----20-20-20-20-20-20--|
D|------------------------|
A|-----18-18-18-18-18-18--|
A|--0---------------------|

Verse 1: no guitar

Pre Chorus:
E|--------|--------|-------|-------|--------|-------------|--------|--------|
B|--------|--------|-------|-------|--------|-------------|--------|--------|
G|---10---|---12---|---9---|---9---|---10---|--10---12-14-|---14---|---13---|
D|--------|--------|-------|-------|--------|-------------|--------|--------|
A|--------|--------|-------|-------|--------|-------------|--------|--------|
A|--------|--------|-------|-------|--------|-------------|--------|--------|

Chorus = Main Riff

Second Verse/ Guitar Solo:
E|----------------------------------------------|
B|----------------------------------------------|
G|--9-----------------9-7-----------------------|
D|-----10-7----7-9-10-----10-9h10p9-7--9---6----|
A|-----------7-------------------------------7--|
A|----------------------------------------------|


E|--------------------------------------------|
B|--------------------------------------------|
G|---7---------------9-7----------------------| x2
D|------7----------------10-9h10p9-7--10~-----|
A|--------8--0-5-7-8--------------------------|
A|--------------------------------------------|

Break
E|------------------------------------------------------------------|
B|------------13-----------------------13---------------------------|
G|---12-13-14-------------12--12-13-14-------------12---12-13-14-13-|
D|---------------12-13-14-----------------12-13-14------------------|
A|------------------------------------------------------------------|
A|------------------------------------------------------------------|

E|--------------------------------------------------------------------------|
B|----------13----------13----------------------13-----------------------13-|
G|-12-13-14----12-13-14------------12--12-13-14-------------12--12-13-14----|
D|------------------------12-13-14-----------------12-13-14-----------------|
A|--------------------------------------------------------------------------|
A|--------------------------------------------------------------------------|

E|------------------------------------------------------------------|
B|------------13-----------------------13---------------------------|
G|---12-13-14-------------12--12-13-14-------------12---12-13-14-13-|
D|---------------12-13-14-----------------12-13-14------------------|
A|------------------------------------------------------------------|
A|------------------------------------------------------------------|

E|-------------------------------------------------------------------------|
B|----------13----------13---------------------13--13--13--13--13--13--13--|
G|-12-13-14----12-13-14------------12--12-13-14--14--14--14--14--14--14----|
D|------------------------12-13-14-----------------------------------------|
A|-------------------------------------------------------------------------|
A|-------------------------------------------------------------------------|


Those are all the parts you need to play the song.
oh and this little outro:

E|---------------------------------------------|
B|------------5--------------------------------|
G|----------5----------------------------------|
D|--------7------------------------------------|
A|------7--------------------------------------|
A|--0------------------------------------------|


Ive done a cover of this tab if you want to check it out:
http://www.youtube.com/watch?v=QPXCJpyE9EA&feature=g-upl
Tap to rate this tab
 
# A B C D E F G H I J K L M N O P Q R S T U V W X Y Z