Song name
# A B C D E F G H I J K L M N O P Q R S T U V W X Y Z

Muse - Survival tab

Survival
by Muse

Tabbed by Joshua Lilley

Tuning half step down:
Eb Ab Db Gb Bb Eb

(1:33)
Eb|---------------------------------------------------------------------|
Bb|---------------------------------------------------------------------|
Gb|---------------------------------------------------------------------|
Db|--------------------------------------------4--5---4h5p4----4--------|
Ab|-----------------------------------------6----------------7----------|
Eb|--------7------7\6--6/7--7-----------7-------------------------------|


|-------------------------------|
|-------------------------------|
|-------------------------------|
|----4--------------------------| x2
|-------6------------------/6---|
|----------7---3--2h3p2---------|


|-----------------------------------------------------------------------|
|----------7--8---7h8p7----7----------7---------------------------------|
|-------8----------------9---------------8-----------------8------------|
|----9--------------------------------------9---------------------------|
|----------------------------------------------10--9h10p9---------------|
|-----------------------------------------------------------------------|


|------------------------------------------------------------------------------|
|--------------7--8--7h8h9-9-8h9h10-10-9h10h11-8h9h10-9h10h11-9h10h11-10h11h12-|
|-------8----------------------------------------------------------------------|
|----9-------------------------------------------------------------------------|
|------------------------------------------------------------------------------|
|------------------------------------------------------------------------------|


|---------------------------------------------------------------|
|---------------------------------12--13--12h13p12----12--------|
|-----------------------------13--------------------14----------|
|-------------------------14------------------------------------|
|---------------------------------------------------------------|
|---0-----------------------------------------------------------|


|----------------------------------|
|---12-----------------------------|
|-------13----------------------13-|
|-----------14---------------------|
|---------------15--14h15p14-------|
|----------------------------------|


|------------------------------------------------------------------------------|
|----------12--13--12h13h14-14-13h14h15-15-14h15h16-13h14h15-14h15h16-15h16h17-|
|------13----------------------------------------------------------------------|
|--14--------------------------------------------------------------------------|
|------------------------------------------------------------------------------|
|------------------------------------------------------------------------------|


|------------------------------------------------------------------------------|
|--17-17-17-17-17-17-17-17-17-17-17-17-b18-b18-b18-b18-b18-b18-b18-b18-b18-b18-|
|------------------------------------------------------------------------------|
|------------------------------------------------------------------------------|
|------------------------------------------------------------------------------|
|------------------------------------------------------------------------------|


|-----------------------------------------------------------------------------|
|-b19-b19-b19-b19-b19-b19-b19-b19-b19-b19-b19-b19-b20-b20-b20-b20-b20-b20-b20-|
|-----------------------------------------------------------------------------|
|-----------------------------------------------------------------------------|
|-----------------------------------------------------------------------------|
|-----------------------------------------------------------------------------|


|---------------------|
|-b20-b20-b20-b20-b20-|
|---------------------|
|---------------------|
|---------------------|
|---------------------|

Verse 1 (2:19)
  
   Race                              It's a race                        But I'm gonna
        PM---------|       PM---------|       PM---------|       PM---------|
|-----------------------------------------------------------------------------|
|-----------------------------------------------------------------------------|
|--2-----2--2--2--2---2-----2--2--2--2---2-----2--2--2--2---2-----2--2--2--2--|
|--2-----2--2--2--2---2-----2--2--2--2---3-----3--3--3--3---3-----3--3--3--3--|
|--0-----0--0--0--0---0-----0--0--0--0---0-----0--0--0--0---0-----0--0--0--0--|
|-----------------------------------------------------------------------------|


   win                      Yes I'm gonna win                   And I 
        PM---------|       PM---------|        PM-------------|        
|--------------------------------------------------------------------|
|--------------------------------------------------------------------|
|--7-----7--7--7--7---7-----7--7--7--7---10-----10--10--10--10---10--|
|--7-----7--7--7--7---7-----7--7--7--7---10-----10--10--10--10---10--|
|--5-----5--5--5--5---5-----5--5--5--5---8------8---8---8---8----8---|
|--------------------------------------------------------------------|



  will light the fuse                    I'll never lose  
PM--------------|      PM----------|    PM-----------------------|
|-----------------------------------------------------------------|
|-----------------------------------------------------------------|
|-10--10--10--10---3-----3--3--3--3---3---------------------------|
|-10--10--10--10---3-----3--3--3--3---3---------------------------|
|-8---8---8---8----1-----1--1--1--1---1---------------------------|
|----------------------------------------111111112222222233333333-|


                         And I choose to survive
       PM----------|   PM-----------------------|
|-------------------------------------------------|
|-------------------------------------------------|
|-------------------------------------------------|     x2
|--3-----3--3--3--3---3---------------------------|
|--3-----3--3--3--3---3---------------------------|
|--1-----1--1--1--1---1--111111112222222233333333-|


Verse 1 Lyrics continued (2:38)

Whatever it takes
You wonít ṗull ahead
Iíll keep up the pace
And Iíll reveal my strength
To the whole human race
Yes Iím gonna win


Solo (2:55)

 Win!
|-------------------|           |----------------------------|
|-------------------|           |----------------------------|
|-------------------|     x4    |----------------------------|
|---------7--7--7---|           |----------------------------| 
|---------7--7--7---|           |----------------------------|
|---15\5--5--5--5---|           |--111111112222222233333333--|


|--------------------------------------------------|
|------------------------------9-----9-9-----9-10--|
|--999-999-999-----9-10-9-10----10------10---------|
|---------------14---------------------------------|
|--------------------------------------------------|
|--------------------------------------------------|


|-------------------|           |----------------------------|
|-------------------|           |----------------------------|
|-------------------|     x4    |----------------------------|
|---------7--7--7---|           |----------------------------| 
|---------7--7--7---|           |----------------------------|
|---15\5--5--5--5---|           |--111111112222222233333333--|


|-------------------------------------------------------------------|
|------------------------------------------14-15-17-17b18r17-15-17--|
|--141414-141414-141414-----14-15-14-15-----------------------------|
|-------------------------17----------------------------------------|
|-------------------------------------------------------------------|
|-------------------------------------------------------------------|


|-------------------|           |----------------------------|
|-------------------|           |----------------------------|
|-------------------|     x4    |----------------------------|
|---------7--7--7---|           |----------------------------| 
|---------7--7--7---|           |----------------------------|
|---15\5--5--5--5---|           |--111111112222222233333333--|

 Tremolo Picking 
|--12121212121212121212121213131313131313131313141414141414141414141414|
|----------------------------------------------------------------------|
|----------------------------------------------------------------------|
|----------------------------------------------------------------------|
|----------------------------------------------------------------------|
|----------------------------------------------------------------------|


|15151515151515151515151516161616161616161616161617171717171717171717171717\-|
|----------------------------------------------------------------------------|
|----------------------------------------------------------------------------|
|----------------------------------------------------------------------------|
|----------------------------------------------------------------------------|
|----------------------------------------------------------------------------|


|-------------------|           |----------------------------|
|-------------------|           |----------------------------|
|-------------------|     x4    |----------------------------|
|---------7--7--7---|           |----------------------------| 
|---------7--7--7---|           |----------------------------|
|---15\5--5--5--5---|           |--111111112222222233333333--|


Fast Picking (I don't know how long this goes on for, but these are the notes to 
play up to the change)

|--161718161718161718161718161718161718161718161718161718161718161718161718-|
|---------------------------------------------------------------------------|
|---------------------------------------------------------------------------|
|---------------------------------------------------------------------------|
|---------------------------------------------------------------------------|
|---------------------------------------------------------------------------|


|-161718171819161718171819161718171819161718171819161718171819161718171819-|
|--------------------------------------------------------------------------|
|--------------------------------------------------------------------------|
|--------------------------------------------------------------------------|
|--------------------------------------------------------------------------|
|--------------------------------------------------------------------------|


|-------------------|           |----------------------------|
|-------------------|           |----------------------------|
|-------------------|     x4    |----------------------------|
|---------7--7--7---|           |----------------------------| 
|---------7--7--7---|           |----------------------------|
|---15\5--5--5--5---|           |--111111112222222233333333--|


     PM-----------|
|------------------|           Fight! Fight! Fight! Fight!
|------------------|           Win! Win! Win! Win!
|------------------|    x9               
|--7---7--7--7--7--|
|--7---7--7--7--7--|
|--5---5--5--5--5--|


    Yes I'm gonna win!
|-------------------------------|
|-------------------------------|
|-------------------------------|    
|--7-----------------------(7)--|
|--7-----------------------(7)--|
|--5-----------------------(5)--|


Pretty much exact. Enjoy.
Tap to rate this tab
 
# A B C D E F G H I J K L M N O P Q R S T U V W X Y Z