Song name
# A B C D E F G H I J K L M N O P Q R S T U V W X Y Z

Muse - Popcorn tab

-------------------------------------------------------------------------------
                             POPCORN - Muse
-------------------------------------------------------------------------------
Tabbed by: Ruben
E-mail: rubylnieves@gmail.com

Tuning: Standard

e|----------------------------------------------------------------------------|
B|12-10-12p10-------12-10-12p10--------12-14-15-14-15-12-14-12-10-12-10--10-12|
G|-----------11--11------------11--11----------------------------------11-----|
D|-------------12--9-------------12--9----------------------------------------|
A|----------------------------------------------------------------------------|
E|----------------------------------------------------------------------------|

e|14-12-14---------14-12-14---------14-16-17-16-17-14-16-14-16-12-14-12--12-14---|
B|---------15--15-----------15--15-------------------------------------14--------|
G|-----------14--11-----------14--11---------------------------------------------|
D|-------------------------------------------------------------------------------|
A|-------------------------------------------------------------------------------|
E|-------------------------------------------------------------------------------|

e|--------------------|
B|-12-10-12p10--------|
G|------------11--11--|
D|--------------12--9-|x2
A|--------------------|
E|--------------------|

e|--------------------------------------------------------------------------|
B|-12-14-15-14-15-14-12-14-12-14-12-10-12-10-12--12-10----------------------|
G|---------------------------------------------11---------------------------|
D|--------------------------------------------------------------------------|
A|--------------------------------------------------------------------------|
E|--------------------------------------------------------------------------|

e|14-12-14---------14-12-14---------14-16-17-16-17-14-16-14-16-12-14-12--12-14---|
B|---------15--15-----------15--15-------------------------------------14--------|
G|-----------14--11-----------14--11---------------------------------------------|
D|-------------------------------------------------------------------------------|
A|-------------------------------------------------------------------------------|
E|-------------------------------------------------------------------------------|

e|1010101010101010----------------1010121214141414-101212121212-91010101010-|
B|----------------1212121212121212------------------------------------------|
G|--------------------------------------------------------------------------|x2
D|--------------------------------------------------------------------------|
A|--------------------------------------------------------------------------|
E|--------------------------------------------------------------------------|

e|1717171717171919191919----------------17171919212121212121-17171919191919-161717171717-|
B|----------------------1919191919191919-------------------------------------------------|
G|---------------------------------------------------------------------------------------|
D|---------------------------------------------------------------------------------------|
A|---------------------------------------------------------------------------------------|
E|---------------------------------------------------------------------------------------|

Repeat the first part and then...

e|-10~-9h10p9---10-12-14~14~10-12~12~9-10~-|
B|-----------12~---------------------------|
G|-----------------------------------------|
D|-----------------------------------------|x2
A|-----------------------------------------|
E|-----------------------------------------|

e|----------------------------|
B|-12-12-12-12----------------|
G|----------------------------|
D|---9--9--9--9-9-9-9-9-9/0---|
A|----------------------------|
E|---------------7-7-7-7------|

And that's it. Enjoy.
Tap to rate this tab
 
# A B C D E F G H I J K L M N O P Q R S T U V W X Y Z