Song name
# A B C D E F G H I J K L M N O P Q R S T U V W X Y Z

Muse - Nature 1 chords

Highlighted       Show chord diagrams
Muse - Nature_1
Standard tuning


Intro (A - Bb/G)

|-0----0-0-0----0----0-0-0----0-0-|-0----0-0-0----0----0-0-0----0-0-|
|-2----2-2-2----2----2-2-2----0-2-|-3----3-3-3----3----3-3-3----3-0-|
|-2----2-2-2----2----2-2-2----2-2-|-3----3-3-3----3----3-3-3----3-0-|
|---------------------------------|---------------------------------|
|---------------------------------|---------------------------------|
|---------------------------------|---------------------------------| (x4)


Verse
A   Bb/G          A
Conforming on a monday
A   Bb/G      A
too often and too cold
A   Bb/G             A
but you aren't even listening
A   Bb/G            A
because you are just
A   Bb/G            A
Too old to feel an earthquake
A   Bb/G           A
or too cool to even care
A   Bb/G            A
but you aren't even listening
A   Bb/G          D/F#
so why should i?

D/F# - Bb/G

Pre chorus
D/F#    Bb/G
You are a natural disaster
D/F#                     Bb/G
and i've wanted you too much
                   D/F#
and now i'm gonna lose
                    Bb/G
i've wanted you too much
                      F#
and now i've gotta choose


Chorus
F#                 Bm            Gm
You're the cause of all this
F#                   Bm             Gm
and i'm sick of trying to please you
F#                         Bm          Gm
and you're gonna feel my emotions coming
F#                   Bm
because you're the world


Verse
A       Bb/G             A
Like a broken dam you're empty
A               Bb/G                A
and all that's left are the sticks and stones
A         Bb/G            A
that were built by other people
A       Bb/G     A
and it really shows
A     Bb/G            A
but you aren't even listening
A   Bb/G            A
because you are just
A   Bb/G            A
Too old to feel an earthquake
A   Bb/G            A
or too cool to even care
A   Bb/G            A
but you aren't even listening
A   Bb/G          D/F#
so why should i?

D/F# - Bb/G

Pre chorus
D/F#    Bb/G
You are a natural disaster
D/F#                     Bb/G
and i've wanted you too much
                   D/F#
and now i'm gonna lose
                    Bb/G
i've wanted you too much
                      F#
and now i've gotta choose


Chorus
F#                 Bm            Gm
You're the cause of all this
F#                   Bm             Gm
and i'm sick of trying to please you
F#                         Bm          Gm
and you're gonna feel my emotions coming
F#                   Bm
because you're the world


                                   |
Ending riff   x4                   |       (many times each)
                                   |
|----------------------------------|---------------------------------------|
|----------------------------------|---------------------------------------|
|----------------------------------|-6--7--9--10-9--7--9--7--6--7--6--3--2-|
|----------------------------------|-x--x--x--x--x--x--x--x--x--x--x--x--x-|
|----------------------------------|-4--5--7--8--7--5--7--5--4--5--4--1--0-|
|-5--5--8-5-5-8---3--3--6--3--6--5-|---------------------------------------|
Tap to rate this tab
# A B C D E F G H I J K L M N O P Q R S T U V W X Y Z