Song name
# A B C D E F G H I J K L M N O P Q R S T U V W X Y Z

Muse - Eternally Missed tab

-------------------------------------------------------------------------------
                             Eternally Missed - Muse
-------------------------------------------------------------------------------
Tabbed by: Me (xtinction)
E-mail: lukemulvay526@gmail.com
Tempo: 90bpm
Key: C Major (A Minor Pentatonic for the solo)

Tuning: EADGBE

b[x]  - bend up to the designated note
b[x]r - bend up to the designated note and return
h[x]  - hammer-on to the designated note
p[x]  - pull-off to the designated note
\[x]  - slide down to the designated note
....  - staccato
X     - muted note
~     - vibrato

Eternally Missed, a great b-side by Muse, sadly it was never released on album, not too 
difficult, though I did rate it intermediate because of the solo

Intro/1st Verse - the intro is actually just a music box playing, which gradually fades 
into the guitar.


e|--------------------------------------------------------------------------|
B|--------------------------------------------------------------------------|
G|-9-9---9-9---9-9---9-9---10-10---10-10---10-10----10-10-------------------|
D|----7-7---7-7---7-7---7-7-----7-7-----7-7------7-7------7-7--[x9]---------|
A|--------------------------------------------------------------------------|
E|--------------------------------------------------------------------------|
   ..........................................................

e|--------------------------------------------------------------------------|
B|--------------------------------------------------------------------------|
G|-9-9---9-9---9-9---9-9-----10-10-10-10-10-10-10-10------------------------|
D|----7-7---7-7---7-7---7-7--7--7--7--7--7--7--7--7-------------------------|
A|--------------------------------------------------------------------------|
E|--------------------------------------------------------------------------|
   ........................

Chorus - You can use power chords rather than what I have put here to play this,
I personally prefer to play it this way, however, that's not how it is played on the 
album. Power chords: [C, G, E, F, D, G]

  [C]     [G]     [Em]    [F]     [Dm]    [G]
e|-0-------3-----------------------1----------------------------------------|
B|-1-------3---------------1-------3----------------------------------------|
G|-0-------0-------2-------2-------2-------3--------------------------------|
D|-2-------0-------2-------3-------0-------5--------------------------------|
A|-3-[x16]-2-[x16]-2-[x16]-3-[x16]---[x16]-5-[x16]--------------------------|
E|---------3-------0-------1---------------3--------------------------------|

2nd Verse - There is no guitar in the actual verse here besides the riff after the 
chorus, the verse itself is guitarless, however I've tabbed the bassline for guitar which you 
can play


e|--------------------------------------------------------------------------|
B|--------------------------------------------------------------------------|
G|--------------------------------------------------------------------------|
D|------7~--------5-------------------7~--XXXXXXXX--------------------------|
A|----------5-6-7---7-5-----[x3]----------XXXXXXXX--------------------------|
E|-8\5------------------8-5------8\5------XXXXXXXX--------------------------|


e|--------------------------------------------------------------------------|
B|--------------------------------------------------------------------------|
G|--------------------------------------------------------------------------|
D|-------------------------------3---3-5-3--3--3--3-5-3-2-3-0--0--0---------|
A|-0--0--0--0-3-0-3-0-5--5--5--5---5----------------------------------------|
E|--------------------------------------------------------------------------|


e|--------------------------------------------------------------------------|
B|--------------------------------------------------------------------------|
G|--------------------------------------------------------------------------|
D|-0-3-2-0------------------------------------------------------------------|
A|---------3-0-[x4]---------------------------------------------------------|
E|--------------------------------------------------------------------------|

Chorus - You can use power chords rather than what I have put here to play this,
I personally prefer to play it this way, however, that's not how it is played on the 
album. Power chords: [C, G, E, F, D, G]

  [C]     [G]     [Em]    [F]     [Dm]    [G]
e|-0-------3-----------------------1----------------------------------------|
B|-1-------3---------------1-------3----------------------------------------|
G|-0-------0-------2-------2-------2-------3--------------------------------|
D|-2-------0-------2-------3-------0-------5--------------------------------|
A|-3-[x16]-2-[x16]-2-[x16]-3-[x16]---[x16]-5-[x16]--------------------------|
E|---------3-------0-------1---------------3--------------------------------|

Solo - I have tabbed this as best I can, I'm pretty sure it's correct, obviously you can 
send me any corrections via email or just put them in the comments :)

e|--------------------------------------------------------------------------|
B|--------------------------------------------------------------------------|
G|--------------------------------------------------------------------------|
D|------7~--------5---------------------------------------------------------|
A|----------5-6-7---7-5-----[x4]--------------------------------------------|
E|-8\5------------------8-5-------------------------------------------------|


e|--------------------------------------------------------------------------|
B|--------------------------------------------------------------------------|
G|-8b9--8b9--8b9--9-7-5-7------------------5---5---5-7----------------------|
D|------------------------7~-----------5-7---7---7--------------------------|
A|---------------------------------5-7--------------------------------------|
E|-----------------------------5-8------------------------------------------|

e|--------------------------------------------------------------------------|
B|--------------------------------------------------------------------------|
G|-8b9--8b9--9-9-7-5-5h7p5h7p5------------------5---5---5-7-----------------|
D|------------------------------------------5-7---7---7---------------------|
A|-----------------------------5~-------5-7---------------------------------|
E|----------------------------------5-8-------------------------------------|

e|--------------------------------------------------------------------------|
B|------8-----8------8-----8------------------------------------------------|
G|-8b9----8b9---8b9----8b9----7b8r--5h7p5-----------------5-7---------------|
D|----------------------------------------7p5---------5-7-------------------|
A|--------------------------------------------7p5-5-7-----------------------|
E|--------------------------------------------------------------------------|

e|--------------------------------------------------------------------------|
B|--------------------------------------------------------------------------|
G|-9b--10b--11b--12b--13b--14b--15b--17br*----------------------------------|
D|--------------------------------------------------------------------------|
A|--------------------------------------------------------------------------|
E|--------------------------------------------------------------------------|

* The bends in the above staff are very small, about half a semitone, again, listen to 
the song for the feel of it

After the solo there is something that may or may not be guitar, it sounds like it also 
uses reverse delay, or just has he notes themselves reversed with no delay.
I may tab it at a later stage just for the sake of completion, but I doubt it's actually 
played on guitar, Matt didn't play it either of the 2 times this song was played live. 
After that part, the main riff gradually fades in.

e|--------------------------------------------------------------------------|
B|--------------------------------------------------------------------------|
G|-9-9---9-9---9-9---9-9---10-10---10-10---10-10----10-10-------------------|
D|----7-7---7-7---7-7---7-7-----7-7-----7-7------7-7------7-7--[x3]---------|
A|--------------------------------------------------------------------------|
E|--------------------------------------------------------------------------|
   ..........................................................

Chorus - You can use power chords rather than what I have put here to play this,
I personally prefer to play it this way, however, that's not how it is played on the 
album. Power chords: [C, G, E, F, D, G]

  [C]     [G]     [Em]    [F]     [Dm]    [G]
e|-0-------3-----------------------1----------------------------------------|
B|-1-------3---------------1-------3----------------------------------------|
G|-0-------0-------2-------2-------2-------3--------------------------------|
D|-2-------0-------2-------3-------0-------5--------------------------------|
A|-3-[x16]-2-[x16]-2-[x16]-3-[x16]---[x16]-5-[x16]--[x2]--------------------|
E|---------3-------0-------1---------------3--------------------------------|

Aaaand that's all folks, a music box can be heard again at the end over the whispery 
vocals. Email or comment any corrections or queries.
Tap to rate this tab
# A B C D E F G H I J K L M N O P Q R S T U V W X Y Z