Song name
# A B C D E F G H I J K L M N O P Q R S T U V W X Y Z

Muse - Starlight Acoustic tab

-------------------------------------------------------------------------------
                             Starlight - Muse
-------------------------------------------------------------------------------
Tabbed by: ChrisRGuitar
E-mail: chrisrguitar@gmail.com

This is a fingerstyle tab version of Muse's Starlight.  If you want to hear how the tab 
sounds you can go to http://youtu.be/OUkcSojxe0w to see a video performance of this 
version of the song.
I have created nearly 100 other similar fingerstyle arrangements of songs like this, 
that you can email me at the address above to receive them free of charge. :)  Good luck & 
I hope you enjoy!

Tuning:

e|--------------------------|-------------------------|
B|--------1-----------1-----|-------1--------1-----1--|
G|--------0-----------0-----|-------0--------0-----0--|
D|--------2-----------2-----|-------2--------2-----2--|
A|--3-----3-----3-----3-----|-3-----3-----3-----3-----|
E|--------------------------|-------------------------|

e|--------------------------|-------------------------|
B|--------1-----------1-----|-------1--------1-----1--|
G|--------0-----------0-----|-------0--------0-----0--|
D|--------2-----------2-----|-------2--------2-----2--|
A|--3-----3-----3-----3-----|-3-----3-----3-----3-----|
E|--------------------------|-------------------------|

e|--0-----------------0--1--|----------------1--0-----|
B|--------1-----------------|----3-----------------3--|
G|--------------0-----------|----------2--------------|
D|--------------------------|-0-----0-----0-----0-----|
A|--3-----3-----3-----3-----|-------------------------|
E|--------------------------|-------------------------|

e|--0--------------0-----1--|----------------1--0-----|
B|--------1-----------------|----1-----------------3--|
G|--------------2-----------|----------2--------------|
D|--------------------------|-------------------------|
A|--0-----0-----0-----0-----|-------------------------|
E|--------------------------|-1-----1-----1-----1-----|

e|--0-----------------0--1--|----------------1--0-----|
B|--------1-----------------|----3-----------------3--|
G|--------------0-----------|----------2--------------|
D|--------------------------|-0-----0-----0-----0-----|
A|--3-----3-----3-----3-----|-------------------------|
E|--------------------------|-------------------------|

e|--0--------------0-----1--|----------------1--0-----|
B|--------1-----------------|----1-----------------3--|
G|--------------2-----------|----------2--------------|
D|--------------------------|-------------------------|
A|--0-----0-----0-----0-----|-------------------------|
E|--------------------------|-1-----1-----1-----1-----|

e|--------------------------|----------------0--------|
B|--3--------1--1-----------|----3--3--1--3-----3--1--|
G|-----------------------0--|-------------------------|
D|--------2-----------2-----|-0-----------0-----------|
A|--3-----------3-----------|-------------------------|
E|--------------------------|-------------------------|

e|--------------------------|----------------0--------|
B|--3--------1--1-----------|----3-----1--3-----3--1--|
G|-----------------------2--|-------------------------|
D|--------2-----------2-----|-------------------------|
A|--0-----------0-----------|-------------------------|
E|--------------------------|-1-----------1-----------|

e|-----------0--0-----------|----0--------0--1--0-----|
B|--3-----------------------|----------3--------------|
G|--------------------0-----|-------2--------------2--|
D|--------2--------2-----2--|-0-----------0-----------|
A|--3-----------3-----------|-------------------------|
E|--------------------------|-------------------------|

e|--0-----0--1--0-----------|-------------------------|
B|-----------------3--------|-1-----------------------|
G|-----------------------2--|-2--------2--------------|
D|--------------------2-----|-3-----3-----------3-----|
A|--0-----------0-----------|-------------------------|
E|--------------------------|-1-----------1-----------|

e|--------------------------|----------------0--------|
B|--3--------1--1-----------|----3--3--1--3-----3--1--|
G|o----------------------0--|-------------------------|
D|o-------2-----------2-----|-0-----------0-----------|
A|--3-----------3-----------|-------------------------|
E|--------------------------|-------------------------|

e|--------------------------|----------------0--------|
B|--3--------1--1-----------|----3-----1--3-----3--1--|
G|-----------------------2--|-------------------------|
D|--------2-----------2-----|-------------------------|
A|--0-----------0-----------|-------------------------|
E|--------------------------|-1-----------1-----------|

e|-----------0--0-----------|----0--------0--1--0-----|
B|--3-----------------------|----------3--------------|
G|--------------------0-----|-------2--------------2--|
D|--------2--------2-----2--|-0-----------0-----------|
A|--3-----------3-----------|-------------------------|
E|--------------------------|-------------------------|

e|--0-----0--1--0-----------|-------------------------|
B|-----------------3--------|-1-----------------------|
G|-----------------------2--|-2--------2--------------|
D|--------------------2-----|-3-----3-----------3-----|
A|--0-----------0-----------|-------------------------|
E|--------------------------|-1-----------1-----------|

e|--3-----------------------|----------8-----------0--|
B|--1-----------------1-----|----6-----------6--------|
G|--0--------------------0--|----5--5-----------5-----|
D|--------2--------2--------|----7--------------------|
A|--3-----------3-----------|-5-----------5-----------|
E|--------------------------|-------------------------|

e|--0-----------------------|----1-----0--1--0--1--3--|
B|--------------------1-----|-------------------------|
G|-----------------------0--|-------------------------|
D|--------2--------2--------|-------------------------|
A|--0-----------0-----------|-------------------------|
E|--------------------------|-1-----------1-----------|

e|--3-----------------------|----------8-----------0--|
B|--1-----------------1-----|----6-----------6--------|
G|--0--------------------0--|----5--5-----------5-----|
D|--------2--------2--------|----7--------------------|
A|--3-----------3-----------|-5-----------5-----------|
E|--------------------------|-------------------------|

e|--0-----------------------|-------------------------|
B|--------------------------|-------------------------|
G|--------------------2-----|----------2-------------o|
D|--------2--------2--------|-------3-----------3----o|
A|--0-----------0-----------|-------------------------|
E|--------------------------|-1-----------1-----------|

e|-----------1-----1--------|-1-----1--0-----1--------|
B|-----1-----------------1--|----------------------0--|
G|--------2-----------2-----|-------------------0-----|
D|--0-----------0-----------|----0--------------------|
A|--------------------------|-------------------------|
E|--------------------------|-3-----------3-----------|

e|--0-----------0--0--------|-1--0--------------------|
B|--------------------------|----------3-----1--------|
G|--------------------------|----------------------2--|
D|--------2-----------2-----|-------2-----------2-----|
A|--------------------------|-0-----------0-----------|
E|--0-----------0-----------|-------------------------|

e|--------------------0-----|-------------------------|
B|--3--------3-----------3--|-1-----------------1-----|
G|--3--------------3--------|-2--------------------2--|
D|--3-----3-----------------|-3-----3--------3--------|
A|--1-----------------------|-------------------------|
E|--------------------------|-1-----------1-----------|

e|--------------------------|-0-----------------------|
B|--3--------3-----------3--|-0--------------------0--|
G|--3-----------------------|-1-----------------------|
D|--3-----3-----------------|-------------------2-----|
A|--1-----------1-----------|-------------------------|
E|--------------------------|-0-----------------------|

e|--------------0--0--------|-0-----0--------0--------|
B|--------1-----------------|-0-----------3-----------|
G|o----------2-----------2--|-0--------0-----------0--|
D|o----2--------------2-----|----2--------------2-----|
A|--0-----------------------|-------------------------|
E|--------------------------|-0-----------0-----------|
                                                    3x
e|--1--------------1--------|-0-----------------------|
B|--1--------1--------------|-1-----------------------|
G|--2-----2--------------2--|-0--------0-------------o|
D|-----3--------3-----3-----|-------2----------------o|
A|--------------------------|-3-----------3-----2-----|
E|--1-----------------------|-------------------------|

e|--------------0--0--------|-0-----0--------0--------|
B|--------1-----------------|-0-----------3-----------|
G|-----------2-----------2--|-0--------0-----------0--|
D|-----2--------------2-----|----2--------------2-----|
A|--0-----------------------|-------------------------|
E|--------------------------|-0-----------0-----------|

e|--1--------------1--------|-3-----------------------|
B|--1--------1--------------|-0-----------------------|
G|--2-----2--------------2--|-0-----------------------|
D|-----3--------3-----3-----|-------------------------|
A|--------------------------|-------------------------|
E|--1-----------------------|-3-----------------------|

e|--3-----------------------|----------8-----------0--|
B|--1-----------------1-----|----6-----------6--------|
G|--0--------------------0--|----5--5-----------5-----|
D|--------2--------2--------|----7--------------------|
A|--3-----------3-----------|-5-----------5-----------|
E|--------------------------|-------------------------|

e|--0-----------------------|----1-----0--1--0--1--3--|
B|--------------------1-----|-------------------------|
G|-----------------------0--|-------------------------|
D|--------2--------2--------|-------------------------|
A|--0-----------0-----------|-------------------------|
E|--------------------------|-1-----------1-----------|

e|--3-----------------------|----------8-----------0--|
B|--1-----------------1-----|----6-----------6--------|
G|--0--------------------0--|----5--5-----------5-----|
D|--------2--------2--------|----7--------------------|
A|--3-----------3-----------|-5-----------5-----------|
E|--------------------------|-------------------------|

e|--0-----------------------|-------------------------|
B|--------------------------|-------------------------|
G|--------------------2-----|----------2--------------|
D|--------2--------2--------|-------3-----------3-----|
A|--0-----------0-----------|-------------------------|
E|--------------------------|-1-----------1-----------|

e|--0-----------------0--1--|----------------1--0-----|
B|--------1-----------------|----3-----------------3--|
G|--------------0-----------|----------2--------------|
D|--------------------------|-0-----0-----0-----0-----|
A|--3-----3-----3-----3-----|-------------------------|
E|--------------------------|-------------------------|

e|--0--------------0-----1--|----------------1--0-----|
B|--------1-----------------|----1-----------------3--|
G|--------------2-----------|----------2--------------|
D|--------------------------|-------------------------|
A|--0-----0-----0-----0-----|-------------------------|
E|--------------------------|-1-----1-----1-----1-----|

e|--0-----------------0--1--|----------------1--0-----|
B|--------1-----------------|----3-----------------3--|
G|--------------0-----------|----------2--------------|
D|--------------------------|-0-----0-----0-----0-----|
A|--3-----3-----3-----3-----|-------------------------|
E|--------------------------|-------------------------|

e|--0--------------0-----1--|----------------1--0-----|
B|--------1-----------------|----1-----------------3--|
G|--------------2-----------|----------2--------------|
D|--------------------------|-------------------------|
A|--0-----0-----0-----0-----|-------------------------|
E|--------------------------|-1-----1-----1-----1-----|

e|--------------------------|-------------------------|
B|--1-----------------------|-------------------------|
G|--0-----------------------|-------------------------|
D|--2-----------------------|-------------------------|
A|--3-----------------------|-------------------------|
E|--------------------------|-------------------------|



************************************

| /   slide up
| \   slide down
| h   hammer-on
| p   pull-off
| ~   vibrato
| +   harmonic
| x   Mute note
| b   Bend
| pb  Pre-bend
| br  Bend release
| pbr Pre-bend release
| brb Bend release bend

************************************
Tap to rate this tab
 
# A B C D E F G H I J K L M N O P Q R S T U V W X Y Z