Song name
# A B C D E F G H I J K L M N O P Q R S T U V W X Y Z

Muse - Madness tab

Madness by Muse (solo)
Standard tuning
b= bend
p= pull off
/= slide down
h= hammer on

e------------------------------------------------------------------------|
b--13b------------11----13b--13---11----13b13--11-13p11-------13b13---11-|
g-------------10---------------------------------------------------------|
d---------12-------------------------------------------------------------|
a------------------------------------------------------------------------|
E--------------------------------------------------------6/--------------|

Play each little section on the high e twice. For example (12h13 18 12h13 18)
e---------18---------16-----------15----------13-------------------------|
b--------------------------------------------------------16----------15/-|
g--12h13------12h13-------12h13-------12h13-------12h13-------12h13------|
d------------------------------------------------------------------------|
a------------------------------------------------------------------------|
E------------------------------------------------------------------------|


e----8----------|
b---------------|
g--8---8--------|
d---------------|
a---------------|
E----------10/--|
Tap to rate this tab
# A B C D E F G H I J K L M N O P Q R S T U V W X Y Z