Song name
# A B C D E F G H I J K L M N O P Q R S T U V W X Y Z

Muse - Follow Me tab

My first tab

I noticed there weren't any tabs for this song so I decided to tab it out myself
based on the early live versions when Matt Bellamy played guitar on it

Enjoy :)

E|-----------------------------------------------------------------------------|
B|--6--6--4--4--4--4--4--4--6--6--4--4--4--4--4--4--6--6--4--4--4--4--4--4-----|
G|--5--5--5--5--5--5--5--5--5--5--5--5--5--5--5--5--5--5--5--5--5--5--5--5-----|
D|--6--6--6--6--6--6--6--6--5--5--5--5--5--5--5--5--6--6--6--6--6--6--6--6-----|
A|-----------------------------------------------------------------------------|
E|-----------------------------------------------------------------------------|



E|--------------------------------------------------------------------------|
B|--6--6--4--4--4--4--4--4--6--6--4--4--4--4--4--4--6--6--4--4--4--4--4--4--|
G|--3--3--3--3--3--3--3--3--5--5--5--5--5--5--5--5--5--5--5--5--5--5--5--5--|
D|--5--5--5--5--5--5--5--5--6--6--6--6--6--6--6--6--5--5--5--5--5--5--5--5--|
A|--------------------------------------------------------------------------|
E|--------------------------------------------------------------------------|



E|----------------------------------------------------------|
B|--9---9---9---9---9---9---9---9---6--6--6--6--6--6--6--6--|
G|--10--10--10--10--10--10--10--10--8--8--8--8--7--7--7--7--|
D|--10--10--10--10--10--10--10--10--8--8--8--8--8--8--8--8--|
A|----------------------------------------------------------|
E|----------------------------------------------------------|



E|-----------------------------------------------------------------------------|
B|-----------------------------------------------------------------------------|
G|-12-12-12-12-12-12-12-12-10-10-10-10-8-8-8-8-8-8-8-8-8-8-8-8-8-8-8-8-8-8-8-8-|
D|-----------------------------------------------------------------------------|
A|-10-10-10-10-10-10-10-10-8--8--8--8--6-6-6-6-6-6-6-6-6-6-6-6-6-6-6-6-6-6-6-6-|
E|-----------------------------------------------------------------------------|



E|-----------------------------------------------------------------------------------------|
B|---------------------------------4-4-4-4-4-4-4-4-4-4-4-4-4-4-4-4-8--8--8--8--8--8--8--8--|
G|-7-7-7-7-7-7-7-7-7-7-7-7-7-7-7-7-5-5-5-5-5-5-5-5-5-5-5-5-5-5-5-5-8--8--8--8--8--8--8--8--|
D|---------------------------------6-6-6-6-6-6-6-6-6-6-6-6-6-6-6-6-10-10-10-10-10-10-10-10-|
A|-5-5-5-5-5-5-5-5-5-5-5-5-5-5-5-5-6-6-6-6-6-6-6-6-6-6-6-6-6-6-6-6-10-10-10-10-10-10-10-10-|
E|-----------------------------------------------------------------------------------------|



E|-----------------------------------------------------------------------------------------|
B|-8--8--8--8--8--8--8--8--8-8-8-8-8-8-8-8-8-8-8-8-8-8-8-8-6-6-6-6-6-6-6-6-6-6-6-6-6-6-6-6-|
G|-8--8--8--8--8--8--8--8--8-8-8-8-8-8-8-8-8-8-8-8-8-8-8-8-8-8-8-8-8-8-8-8-8-8-8-8-8-8-8-8-|
D|-10-10-10-10-10-10-10-10-8-8-8-8-8-8-8-8-8-8-8-8-8-8-8-8-8-8-8-8-8-8-8-8-8-8-8-8-8-8-8-8-|
A|-10-10-10-10-10-10-10-10-----------------------------------------------------------------|
E|-----------------------------------------------------------------------------------------|



E|-------------------|
B|-6-6-6-6-6-6-6-6-6-|
G|-7-7-7-7-7-7-7-7-7-|
D|-8-8-8-8-8-8-8-8-8-|
A|-------------------|
E|-------------------|

E|-----------------------------------------------------------------------------|
B|--6--6--4--4--4--4--4--4--6--6--4--4--4--4--4--4--6--6--4--4--4--4--4--4-----|
G|--5--5--5--5--5--5--5--5--5--5--5--5--5--5--5--5--5--5--5--5--5--5--5--5-----|
D|--6--6--6--6--6--6--6--6--5--5--5--5--5--5--5--5--6--6--6--6--6--6--6--6-----|
A|-----------------------------------------------------------------------------|
E|-----------------------------------------------------------------------------|



E|--------------------------------------------------------------------------|
B|--6--6--4--4--4--4--4--4--6--6--4--4--4--4--4--4--6--6--4--4--4--4--4--4--|
G|--3--3--3--3--3--3--3--3--5--5--5--5--5--5--5--5--5--5--5--5--5--5--5--5--|
D|--5--5--5--5--5--5--5--5--6--6--6--6--6--6--6--6--5--5--5--5--5--5--5--5--|
A|--------------------------------------------------------------------------|
E|--------------------------------------------------------------------------|



E|----------------------------------------------------------|
B|--9---9---9---9---9---9---9---9---6--6--6--6--6--6--6--6--|
G|--10--10--10--10--10--10--10--10--8--8--8--8--7--7--7--7--|
D|--10--10--10--10--10--10--10--10--8--8--8--8--8--8--8--8--|
A|----------------------------------------------------------|
E|----------------------------------------------------------|

E|------------------------------------------------------------------------------|
B|--9--------8--------9--------8--------9--------8--------9--------8------------|
G|--8--------8--------8--------8--------8--------8--------8--------8------------|
D|--8--------8--------8--------8--------8--------8--------8--------8------------|
A|------------------------------------------------------------------------------|
E|------------------------------------------------------------------------------|
Tap to rate this tab
# A B C D E F G H I J K L M N O P Q R S T U V W X Y Z