Song name
# A B C D E F G H I J K L M N O P Q R S T U V W X Y Z

Muse - Easily tab

Artist: Muse 
Song: Easily

This is my guitar arrangement of the song Easily by Muse. I really love this
song and I hope you guys like it.


Tuning: DADGBe (Drop D)

Verse:
e|------------------------------|--------------------|-------------------|
B|------------------------------|--------------------|-------------------|
G|------------------------------|--------------------|-------------------|
D|------------------------------|--------------------|-------------------|
A|------------------------------|8---------------8---|8---------------8--|
D|-13-10-10--10-10--10-10-13-10-|--8-8--8-8--8-8---8-|--6-6--6-6--6-6---6|

e|---------------------|--------------------|--------------------|
B|---------------------|--------------------|--------------------|
G|---------------------|--------------------|--------------------|
D|---------------------|--------------------|--------------------|
A|-6---------------6---|5---------------5---|3---------------3---|
D|---5-5--5-5--5-5---5-|--3-3--3-3--3-3---3-|--1-1--1-1--1-1---1-|

e|----------------------|--------------------|
B|----------------------|--------------------|
G|----------------------|--------------------|
D|-5-or-----------------|--------------------|
A|(10)optional----11----|10--------------10--|
D|--8-8--8-8--8-8----10-|--9-9--9-9--9-9----9|

Repeat three times for the first verse and 2 times for the second verse. 


Bridge:
e|------------------------------|
B|------------------------------|
G|------------------------------|  Repeat twice.
D|------------------------------|
A|------------------------------|
D|-13-10-10--10-10--10-10-13-10-|


Chorus:
e|-0-----0-|-3-----3-|-1-----1-|-0-----0-|
B|-1-----1-|-3-----3-|-1-----1-|-0-----0-|
G|-2-----2-|-4-----4-|-2-----2-|-1-----1-|
D|-2-2-2-2-|-5-5-5-5-|-3-3-3-3-|-2-2-2-2-|
A|-0-0-0-0-|-5-5-5-5-|-3-3-3-3-|-2-2-2-2-|
D|-x-----x-|-x-----x-|-x-----x-|-2-----2-|

The chords are Am, G, F, and E. I play it like this but you can play it
however you want. 

As for the solo, there's already an excellent tab for that on here by 
daviesgk. Just type in Easily by Muse and you'll find his solo arrangement 
for this song. 

I hope you liked it :)
Tap to rate this tab
# A B C D E F G H I J K L M N O P Q R S T U V W X Y Z