Song name
# A B C D E F G H I J K L M N O P Q R S T U V W X Y Z

Muse - Supremacy tab

-------------------------------------------------------------------------------
                             SUPREMACY - MUSE
-------------------------------------------------------------------------------
Tabbed by: David Soto
Tuning: Drop A (A,A,D,G,B,E)


Intro (Distortion)-
e|-------------------------------------------------------------------------------------|
B|-------------------------------------------------------------------------------------|
G|-------------------------------------------------------------------------------------|
D|-x-x-x-x--------------x-x-x-x--------------x-x-x-x--------------x-x-x-x--------------|
A|-x-x-x-x--------------x-x-x-x--------------x-x-x-x--------------x-x-x-x--------------|
A|-x-x-x-x-12-12-12-12\-x-x-x-x-14-14-14-14\-x-x-x-x-15-15-15-15\-x-x-x-x-17-17-17-17\-|

e|------------------------------------------------------------------------------------|
B|------------------------------------------------------------------------------------|
G|------------------------------------------------------------------------------------|
D|------------------------------------------------------------------------------------| (x2)
a|------------------------------------------------------------------------------------|
A|-0--3--0--7--0--8--0--7--0---0-10-11-12-0--3--0--7--0--8--0--7--0---0-10-11-12-15---|

e|------------------------------------------|
B|------------------------------------------|
G|------------------------------------------|
D|------------------------------------------|
a|------------------------------------------|
A|-0--3--0--7--0--8--0--7--0---0-10-11-12-0-|

e|------------------------------------------------------------------------------------|
B|------------------------------------------------------------------------------------|
G|------------------------------------------------------------------------------------|
D|------------------------------------------------------------------------------------|
a|-0-0-0-0-----2-2-2-2-----3-3-3-3-----5-5-5-5-----6-6-6-6-6-6------------------------|
A|---------0-0---------0-0---------0-0---------0-0------------------------------------|
           * *         * *         * *         * *

Pre-Verse-
e|------------------------------------------------------------------------------------|
B|------------------------------------------------------------------------------------|
G|------------------------------------------------------------------------------------|
D|------------------------------------------------------------------------------------|(x2)
a|------------------------------------------------------------------------------------|
A|------------------------------------------------------------------------------------|

Verse-
e|------------------------------------------------------------------------------------|
B|------------------------------------------------------------------------------------|
G|------------------------------------------------------------------------------------|
D|------------------------------------------------------------------------------------|(x16)
a|------------------------------------------------------------------------------------|
A|------------------------------------------------------------------------------------|


Chorus-
"Your Supremacy..."
e|------------------------------------------------------------------------------------|
B|------------------------------------------------------------------------------------|
G|------------------------------------------------------------------------------------|
D|------------------------------------------------------------------------------------|
a|------------------------------------------------------------------------------------|
A|-0--3--0--7--0--8--0--7--0---0-10-11-12-0--3--0--7--0--8--0--7--0---0-10-11-12-15---|

e|------------------------------------------|
B|------------------------------------------|
G|------------------------------------------|
D|------------------------------------------|
a|------------------------------------------|
A|-0--3--0--7--0--8--0--7--0---0-10-11-12-0-|

e|------------------------------------------------------------------------------------|
B|------------------------------------------------------------------------------------|
G|------------------------------------------------------------------------------------|
D|------------------------------------------------------------------------------------|
a|-0-0-0-0-----2-2-2-2-----3-3-3-3-----5-5-5-5-----6-6-6-6-6-6------------------------|
A|---------0-0---------0-0---------0-0---------0-0------------------------------------|
           * *         * *         * *         * *


Guitar Solo (Heavy Distortion, Light Phaser)-
e|------------------------------------------------------------------------------------|
B|------------------------------------------------------------------------------------|
G|-9-----------------------9--7--5--4h5p4\2---4~~~~~~---------------------------------|
D|------10--7------7--9--10-------------------------6~~~~~~~~~~~~~~~------------------|
a|-------------7--------------------------------------7~~~~~~~~~~~~~------------------|
A|------------------------------------------------------------------------------------|
 |                                                                                    |(x2)
e|------------------------------------------------------------------------------------|
B|------------------------------------------------------------------------------------|
G|-7-----------------------9--7--5--4h5p4\2---5~~~~~~~~~~~~~~~~~~~~~------------------|
D|------7-----------------------------------------------------------------------------|
a|---------8----0--5--7--8------------------------------------------------------------|
A|------------------------------------------------------------------------------------|

  "You     don't have long      I   am   on   to you"
e|------------------------------------------------------------------------------------|
B|------------------------------------------------------------------------------------|
G|-10------------------12-------10--9----9--------9-----------------------------------|
D|------------------------------------------------------------------------------------|
a|------------------------------------------------------------------------------------|
A|------------------------------------------------------------------------------------|
"The time      it has come         to destroy..."                                     |
e|------------------------------------------------------------------------------------|
B|------------------------------------------------------------------------------------|
G|---10----------------10-------12--14--14--------13\---------------------------------|
D|------------------------------------------------------------------------------------|
a|------------------------------------------------------------------------------------|
A|------------------------------------------------------------------------------------|



Intro-
"Your Supremacy..."
e|-------------------------------------------------------------------------------------|
B|-------------------------------------------------------------------------------------|
G|-------------------------------------------------------------------------------------|
D|-x-x-x-x--------------x-x-x-x--------------x-x-x-x--------------x-x-x-x--------------|
A|-x-x-x-x--------------x-x-x-x--------------x-x-x-x--------------x-x-x-x--------------|
A|-x-x-x-x-12-12-12-12\-x-x-x-x-14-14-14-14\-x-x-x-x-15-15-15-15\-x-x-x-x-17-17-17-17\-|



Bridge (Distortion, Phaser)-
e|------------------------------------------------------15-16-17-16-15-16/17-----------|
B|-----------------------------------------15-16-17/19---------------------------------|
G|-12-13-14/17----------------12-13-14/17----------------------------------------------|
D|---------------12-13-14/17-----------------------------------------------------------| (X4)
A|-------------------------------------------------------------------------------------|
A|-------------------------------------------------------------------------------------|


Chorus-
"Supremacy..."
e|------------------------------------------------------------------------------------|
B|------------------------------------------------------------------------------------|
G|------------------------------------------------------------------------------------|
D|------------------------------------------------------------------------------------| (x2)
a|------------------------------------------------------------------------------------|
A|-0--3--0--7--0--8--0--7--0---0-10-11-12-0--3--0--7--0--8--0--7--0---0-10-11-12-15---|

e|------------------------------------------|
B|------------------------------------------|
G|------------------------------------------|
D|------------------------------------------|
a|------------------------------------------|
A|-0--3--0--7--0--8--0--7--0---0-10-11-12-0-|

e|------------------------------------------------------------------------------------|
B|------------------------------------------------------------------------------------|
G|------------------------------------------------------------------------------------|
D|------------------------------------------------------------------------------------|
a|-0-0-0-0-----2-2-2-2-----3-3-3-3-----5-5-5-5-----6-6-6-6-6-6------------------------|
A|---------0-0---------0-0---------0-0---------0-0------------------------------------|
           * *         * *         * *         * *


End (Clean, Tremolo)
e|-------------------0~---------------------------------------------------------------|
B|----------------1~------------------------------------------------------------------|
G|-------------1~---------------------------------------------------------------------|
D|----------2~------------------------------------------------------------------------|
a|-0~---------------------------------------------------------------------------------|
A|------------------------------------------------------------------------------------|


############################

| /   slide up
| \   slide down
| h   hammer-on
| p   pull-off
| ~   vibrato
| +   harmonic
| x   Mute note
| b   Bend
| pb  Pre-bend
| br  Bend release
| pbr Pre-bend release
| brb Bend release bend
| *   Palm Mute

############################
Tap to rate this tab
# A B C D E F G H I J K L M N O P Q R S T U V W X Y Z