Song name
# A B C D E F G H I J K L M N O P Q R S T U V W X Y Z

Muse - Panic Station tab

This is how I play the song, its a bit different from the original at some points 
but it still sounds pretty good. I'm in a band and this song sounds better played 
with two guitars and a bass. If you want to see a cover of this, go to this link:
http://www.youtube.com/watch?v=5OsTG-H285o&feature=youtu.be

Thanks

Standard Tuning (EADGBe)

Intro & Verse 1:
|--------------------12----|\
|--------------------12----| \
|--------------------12----|  \ x6
|-----------7/9------------|  /
|-----------5/7------------| /
|-----0-0-0-----0000-------|/

Chorus:
Normally played on bass but you can play on guitar:
|---------------------------------------|\
|---------------------------------------| \
|---------------------------------------|  \ x2
|--2-2-2-2-5-5-5-5-7-7-7-7-9-10--12--12-|  /
|---------------------------------------| /
|-0-0-0-0-3-3-3-3-5-5-5-5-7-8--10--10---|/
Guitar 2
|-------------------------------------------------------------|
|-------------------------------------------------------------|
|-------------------------------------------------------------|
|-99-xx-9-x-9-x-99--77-xx-7-x-7-x-77--9-9--xx-9--x-9--x-9-9---|
|-88-xx-8-x-8-x-88--88-xx-8-x-8-x-88--1010-xx-10-x-10-x-1010--|
|-77-xx-7-x-7-x-77--77-xx-7-x-7-x-77--9-9--xx-9--x-9--x-9-9---|

Riff:
|---------------------------|   |----------------------------121212-151515-|
|---------------------------|   |----------------------------121212-151515-|
|--9-----9---------12--7h9--|x2 |--9-----9---------12--7h9---121212-151515-|
|---9-12---9h12/14----------|   |---9-12---9h12/14-------------------------|
|---------------------------|   |------------------------------------------|
|---------------------------|   |------------------------------------------|

Verse 2:
Same as Verse 1

Chorus:
Same but with Riff played over the top by another guitar

First Solo:
Sounds better if played with open strings after each note but sounds alright with the open notes.
|----------------------------------|--------------------------------|
|----------------------------------|--------------------------------|
|----------------------------------|--------------------------------|x3
|----------------------------------|--------------------------------|
|----------------------------------|--------------------------------|
|-12-0-11-0-10-0-9-0-8-0-7-0-6-7-0-|-0-12-0-11-0-10-0-9-0-8-0-6-7---|

|----------------------------------|--------------------------------|
|----------------------------------|--------------------------------|
|----------------------------------|--------------------------------| 
|----------------------------------|--------------------------------|
|----------------------------------|--------------------------------|
|-12-0-11-0-10-0-9-0-8-0-7-0-6-7-0-|-0-12-0-11-0-10-0-9-0-8-0-6-7---|

Final Solo:
|------------------------------------------------------------------------|
|-12----------12----12----------12----14----------14----13----------13---|
|---12------12--12----12------12--12----14------14--14----12------12--12-|
|-----14--14------------12--12------------14--14------------14--14-------|x6
|-------14----------------14----------------16----------------15---------|
|------------------------------------------------------------------------|

Outro:
|----------------------------------12-12-12-12-|
|----------------------------------12-12-12-12-|
|----------------------------------12-12-12-12-|X2
|--------------7/9-----------------------------|
|--------------5/7-----------------------------|
|-----0--0--0--------0--0--0--0----------------|
Tap to rate this tab
# A B C D E F G H I J K L M N O P Q R S T U V W X Y Z