Guitaretab - guitar tabs
Song name
# A B C D E F G H I J K L M N O P Q R S T U V W X Y Z

Muse - Ruled By Secrecy tab

Because the other guy didn`t had.

 _____________________________________________________________
           Muse  Ruled by Secrecy piano solo
 _____________________(Updated 05.30.07)______________________   

Tip: The best way for the low part is to with a bass (or on piano), could add distortion.

Well, Standard Tuning:
  
 (Bass-note: F)            (For a pianist, here are the notes)
e|------4-4-4--6--4-|         e|----Ab-Ab-Ab--Bb--Ab--|  
B|------6-6-6--6--6-|         B|----F--F--F---F---F---|   
G|------5-5-5-5--5-|  x2     G|----C--C--C---C---C---|
D|-(3)--------------|         D|-F--------------------|  
A|------------------|         A|-C--------------------|
E|------------------|         E|-F--------------------|

 (Bass-note: E)
e|------3-3-3--4--3-|         e|----G--G--G---Ab--G---|
B|------5-5-5--5--5-|         B|----E--E--E---E---E---|
G|------5-5-5--5--5-|  x2     G|----C--C--C---C---C---|
D|-(2)--------------|         D|-E--------------------|
A|------------------|         A|-B--------------------|
E|------------------|         E|-E--------------------|
[ Tab from: http://www.guitaretab.com/m/muse/57283.html ]
 (Bass-note: Eb)
e|-----3-3-4--6--4--3-|       e|-----G--G---Ab---Bb---Ab--G--|
B|-----4-4-4--4--4--4-|       B|-----Eb-Eb--Eb---Eb---Eb--Eb-|
G|-----5-5-5--5--5--5-| x2    G|-----C--C---C----C----C---C--|
D|-(1)----------------|       D|-Eb--------------------------| 
A|--------------------|       A|-Bb--------------------------|
E|--------------------|       E|-Eb--------------------------|

 (Bass-note: C)
e|------3-3-3--4--3-|         e|----G--G--G---Ab--G---|
B|------5-5-5--5--5-|         B|----E--E--E---E---E---|
G|------5-5-5--5--5-|  x2     G|----C--C--C---C---C---|
D|------------------|         D|-C--------------------| 
A|-(3)--------------|         A|-G--------------------| 
E|------------------|         E|-G--------------------|

Play this twice.

Alternative version:

e|------------------|
B|--9--9--9--11---9-|
G|-10-10-10--10--10-|  x2
D|-10-10-10--10--10-| 
A|------------------|
E|------------------|
 
e|------------------|
B|--8--8--8---9---8-|
G|--9--9--9---9---9-|  x2
D|-10-10-10--10--10-|
A|------------------|
E|------------------|

e|----------------------|
B|--8--8--9--11---9---8-| x2
G|--8--8--8---8---8---8-|
D|-10-10-10--10--10--10-|
A|----------------------|
E|----------------------|

e|------------------|
B|--8--8--8---9---8-|
G|--9--9--9---9---9-|  x2
D|-10-10-10--10--10-|
A|------------------|	
E|------------------|

(Play everything twice)

Well, that`s the solo, I think it`s more beautiful on pano, but maybe with some effects.
 
Good luck!
________________________________________________________________
                                _____     _____
             |\    /|  |    |  /         |
             | \ /  |  |    |  \_____    |__
             |      |  |    |        \   |
             |      |  \____/   _____/   |_____
________________________________________________________________


Related for Ruled By Secrecy tab