Guitaretab - guitar tabs
Song name
# A B C D E F G H I J K L M N O P Q R S T U V W X Y Z
Home / M / Muse / Nishe tab

Muse - Nishe tab

Muse Niche:


Bass Tab (Continuous):
G---------------7-------------------------------------------------------|
D---9-------------------------9-----------------------------------------|
B------79----------------------79-------------------------------------|
E------------------------------------------7----------------------------|

Guitar Tab (With no tone and some reverb):

E--------------------7---------------|
B-----------------7------------------|
G--------------7---------------------|
D---9--------------------------------|              (Phrase One)
A------------------------------------|
E---7--------------------------------|


E---9--------9---7--------------------------------------------------|
B---7--------7------109---------9-----9-----9---      (Phrase Two--|
G---7--------7------------------7-------7---7-----------------------|
D---0---------------------------------------------------------------|   (Chord first
A-------------------------------------------------------------------|  time only)
E-------------------------------------------------------------------|


E---9---7--------------9----|
B---7------1097------7----|   (Phrase Three)
G---7-----------------------|
D---------------------------|
A---------------------------|
E---------------------------|

[ Tab from: http://www.guitaretab.com/m/muse/58576.html ]
E--------------------------------------------------------|
B---5^ (5)32-----------------5^(5)32^--0-------------| (Phrase Four)
G--------------------------------------------------------|
D-------------------(4-3-2-0-----------------------------|Play Brackets 2nd
A------------------------------4-2^-2)-------------------|time only
E--------------------------------------------------------|


E---10--97---------------------------------------1097-----------9-|
B----7-----------109^------9---9---9---9---------7----------109^-7-|
G----7--------------------7---7---7---7-----------7------------------| Phrase
D--------------------------------------------------------------------|  Five
A--------------------------------------------------------------------|
E--------------------------------------------------------------------|


E--------------------------------------------------------------|
B---3---5---7---7^------7^---5---3---2^---(0)------------------|
G--------------------------------------------------------------| Phrase 6
D--------------------------------------------------------------| (0) 1st
A--------------------------------------------------------------|  time only
E--------------------------------------------------------------|


^ means either bend  or vibrato

Time:
Phrase One X 1
Phrase Two X 2
Phrase Three  X 1
Phrase Four X 2
Phrase Two X 1
Phrase Three X 1
Phrase Five X 1
Phrase Six X 2
Phrase Two X 1
Phrase Three X 1
Phrase Five X 1
Phrase Four X 1
Related for Nishe tab