Guitaretab - guitar tabs
Song name
# A B C D E F G H I J K L M N O P Q R S T U V W X Y Z

Muse - Supermassive Black Hole tab

----------------------------------------------------------------------------
		       Supermassive Black Hole - Muse
----------------------------------------------------------------------------
tabbed by: acoustic-fish
tuning: EADGBe (standard)


there are a lot of versions of this song already, but heres how i play it, i think its easier.

intro:
when there is a bend, bend the note a semitone higher, so it sounds like fret 15
 e|-----------------|-----------------|-----------------|-----------------|
 B|-----------------|-----------------|-----------------|-----------------|
 G|-----------------|-----------------|-----------------|-----------------|
 D|-----------------|-----------------|-----------------|-----------------|
 A|-----------------|-----------------|-----------------|-----------------|
 E|--0----x-14^-0--0|-0---14^--0---0--|--0----x-14^-0--0|-0---14^--0---0--|

 e|-----------------|-----------------|-----------------|-----------------|
 B|-----------------|-----------------|-----------------|-----------------|
 G|-----------------|-----------------|-----------------|-----------------|
 D|-----------------|-----------------|-----------------|-------9-7-5h7p5-|
 A|-----------------|-----------------|-----------------|----------------7|
 E|--0----x-14^-0--0|-0---14^--0---0--|--0----x-14^-0--0|00-15-0----------|

 e|-----------------|-----------------|-----------------|-----------------|
 B|-----------------|-----------------|-----------------|-----------------|
 G|-----------------|-----------------|-----------------|-----------------|
 D|-----5-----5-5-5-|-----5-----7-7-5-|-----5-----5-5-5-|-----5-----7-7-9-|
 A|-----x-----5-5-5-|-----x-----7-7-5-|-----x-----5-5-5-|-----x-----7-7-9-|
 E|-0-0-0-0-0-3-3-3-|-0-0-0-0-0-5-5-3-|-0-0-0-0-0-3-3-3-|-0-0-0-0-0-5-5-7-|

 e|-----------------|-----------------|-----------------|-----------------|
 B|-----------------|-----------------|-----------------|-----------------|
 G|-----------------|-----------------|-----------------|-----------------|
 D|-----5-----5-5-5-|-----5-----7-7-5-|-----5-----5-5-5-|----5--9-7-5h7p5-|
 A|-----x-----5-5-5-|-----x-----7-7-5-|-----x-----5-5-5-|----x-----------7|
 E|-0-0-0-0-0-3-3-3-|-0-0-0-0-0-5-5-3-|-0-0-0-0-0-3-3-3-|0-0-0-0----------|


verse 1:
 e|-----------------|-----------------|-----------------|-----------------|
 B|-----------------|-----------------|-----------------|-----------------|
 G|-----------------|-----------------|-----------------|-----------------|
 D|-----5-----5-5-5-|-----5-----7-7-5-|-----5-----5-5-5-|-----5-----7-7-9-|
 A|-----x-----5-5-5-|-----x-----7-7-5-|-----x-----5-5-5-|-----x-----7-7-9-|
 E|-0-0-0-0-0-3-3-3-|-0-0-0-0-0-5-5-3-|-0-0-0-0-0-3-3-3-|-0-0-0-0-0-5-5-7-|
        Ooh... ...you know...            ...ooh baby......hear...

 e|-----------------|-----------------|-----------------|-----------------|
 B|-----------------|-----------------|-----------------|-----------------|
 G|-----------------|-----------------|-----------------|-------4-2-0h2p0-|
 D|-----5-----5-5-5-|-----5-----7-7-5-|-----5-----5-5-5-|----5-----------2|
 A|-----x-----5-5-5-|-----x-----7-7-5-|-----x-----5-5-5-|----x------------|
 E|-0-0-0-0-0-3-3-3-|-0-0-0-0-0-5-5-3-|-0-0-0-0-0-3-3-3-|0-0-0-0----------|
        you caught...  ...pretences         how... ...you    me go?


bridge 1:
 e|-----------------|-----------------|-----------------|-----------------|
 B|-----------------|-----------------|-----------------|-----------------|
 G|-----------------|-----------------|-----------------|-----------------|
 D|-7-7-7-7-7-7-7-6-|-5-5-5-5-5-5-5-7-|-9-9-9-9-9-9-9-5-|-2-2-2-2-4-4-5-5-|
 A|-7-7---7-7---7-6-|-5-5---5-5---5-7-|-9-9---9-9---9-5-|-2-2---2-4-4-5-5-|
 E|-5-5---5-5---5-4-|-3-3---3-3---3-5-|-7-7---7-7---7-3-|-0-0---0-2-2-3-3-|
    ooooooooooooooooooooooooooooooooooooooooo you...   ...soul alight

 e|-----------------|-----------------|-----------------|-----------------|
 B|-----------------|-----------------|-----------------|-----------------|
 G|-----------------|-----------------|-----------------|-----------------|
 D|-7-7-7-7-7-7-7-6-|-5-5-5-5-5-5-5-7-|-9-9-9-9-9-9-9-5-|-2-2-2-2-4-4-5-5-|
 A|-7-7---7-7---7-6-|-5-5---5-5---5-7-|-9-9---9-9---9-5-|-2-2---2-4-4-5-5-|
 E|-5-5---5-5---5-4-|-3-3---3-3---3-5-|-7-7---7-7---7-3-|-0-0---0-2-2-3-3-|
    ooooooooooooooooooooooooooooooooooooooooo you...   ...soul alight


chorus 1:
 e|-----------------|-----------------|-----------------|-----------------|
 B|-----------------|-----------------|-----------------|-----------------|
 G|-----------------|-----------------|-----------------|-----------------|
 D|-7-7-7-7-7-7-7-6-|-5-5-5-5-5-5-5-7-|-9-9-9-9-9-9-9-5-|-2-2-2-2-4-4-5-5-|
 A|-7-7---7-7---7-6-|-5-5---5-5---5-7-|-9-9---9-9---9-5-|-2-2---2-4-4-5-5-|
 E|-5-5---5-5---5-4-|-3-3---3-3---3-5-|-7-7---7-7---7-3-|-0-0---0-2-2-3-3-|
    glaciers...   ...dead...   ...and...     ...sucked... ...supermassive
   (ooooooooooooooooooooooooooooooooooooooooo you...   ...soul alight)

 e|-----------------|-----------------|-----------------|-----------------|
 B|-----------------|-----------------|-----------------|-----------------|
 G|-----------------|-----------------|-----------------|-----------------|
 D|-7-7-7-7-7-7-7-6-|-5-5-5-5-5-5-5-7-|-9-9-9-9-9-9-9-9-|---9-9-8-8-7-7-5-|
 A|-7-7---7-7---7-6-|-5-5---5-5---5-7-|-9-9---9-9---9-9-|---9-9-8-8-7-7-5-|
 E|-5-5---5-5---5-4-|-3-3---3-3---3-5-|-7-7---7-7---7-7-|---7-7-6-6-5-5-3-|
    glaciers...   ...dead...   ...and...     ...sucked......into the...
   (ooooooooooooooooooooooooooooooooooooooooo you...   ...soul)


verse 2:
< > indicates harmonics. Put your finger on the strings above the fret, but donít press down when you strum.
 e|-----------------|-----------------|-----------------|-----------------|
 B|-----------------|-----------------|-----------------|-----------------|
 G|-----------------|-----------------|-----------------|-----------------|
 D|-2----<2>--x-----|<2>-<2>----x-----|-2---<2>---x-----|-<2>---<2>-x-----|
 A|-2----<2>--x-----|<2>-<2>----x-----|-2---<2>---x-----|-<2>---<2>-x-----|
 E|-0----<0>--x-----|<0>-<0>----x-----|-0---<0>---x-----|-<0>---<0>-x-----|
        i   thought... ...for...         ...oh  baby...   ...for you

 e|-----------------|-----------------|-----------------|--------x--------|
 B|-----------------|-----------------|-----------------|--------x--------|
 G|-----------------|-----------------|-----------------|--------x--------|
 D|-----5-----5-5-5-|-----5-----7-7-5-|-----5-----5-5-5-|----5------------|
 A|-----x-----5-5-5-|-----x-----7-7-5-|-----x-----5-5-5-|----x------------|
 E|-0-0-0-0-0-3-3-3-|-0-0-0-0-0-5-5-3-|-0-0-0-0-0-3-3-3-|0-0-0-0----------|
      you're......the superficial         and...   ...you......truth


bridge 2:
 e|-----------------|-----------------|-----------------|-----------------|
 B|-----------------|-----------------|-----------------|-----------------|
 G|-----------------|-----------------|-----------------|-----------------|
 D|-7-7-7-7-7-7-7-6-|-5-5-5-5-5-5-5-7-|-9-9-9-9-9-9-9-5-|-2-2-2-2-4-4-5-5-|
 A|-7-7---7-7---7-6-|-5-5---5-5---5-7-|-9-9---9-9---9-5-|-2-2---2-4-4-5-5-|
 E|-5-5---5-5---5-4-|-3-3---3-3---3-5-|-7-7---7-7---7-3-|-0-0---0-2-2-3-3-|
    ooooooooooooooooooooooooooooooooooooooooo you...   ...soul alight

 e|-----------------|-----------------|-----------------|-----------------|
 B|-----------------|-----------------|-----------------|-----------------|
 G|-----------------|-----------------|-----------------|-----------------|
 D|-7-7-7-7-7-7-7-6-|-5-5-5-5-5-5-5-7-|-9-9-9-9-9-9-9-5-|-2-2-2-2-4-4-5-5-|
 A|-7-7---7-7---7-6-|-5-5---5-5---5-7-|-9-9---9-9---9-5-|-2-2---2-4-4-5-5-|
 E|-5-5---5-5---5-4-|-3-3---3-3---3-5-|-7-7---7-7---7-3-|-0-0---0-2-2-3-3-|
    ooooooooooooooooooooooooooooooooooooooooo you...   ...soul alight


chorus 2:
 e|-----------------|-----------------|-----------------|-----------------|
 B|-----------------|-----------------|-----------------|-----------------|
 G|-----------------|-----------------|-----------------|-----------------|
 D|-7-7-7-7-7-7-7-6-|-5-5-5-5-5-5-5-7-|-9-9-9-9-9-9-9-5-|-2-2-2-2-4-4-5-5-|
 A|-7-7---7-7---7-6-|-5-5---5-5---5-7-|-9-9---9-9---9-5-|-2-2---2-4-4-5-5-|
 E|-5-5---5-5---5-4-|-3-3---3-3---3-5-|-7-7---7-7---7-3-|-0-0---0-2-2-3-3-|
    glaciers...   ...dead...   ...and...     ...sucked... ...supermassive
   (ooooooooooooooooooooooooooooooooooooooooo you...   ...soul alight)
[ Tab from: http://www.guitaretab.com/m/muse/72657.html ]
 e|-----------------|-----------------|-----------------|-----------------|
 B|-----------------|-----------------|-----------------|-----------------|
 G|-----------------|-----------------|-----------------|-----------------|
 D|-7-7-7-7-7-7-7-6-|-5-5-5-5-5-5-5-7-|-9-9-9-9-9-9-9-9-|---9-9-8-8-7-7-5-|
 A|-7-7---7-7---7-6-|-5-5---5-5---5-7-|-9-9---9-9---9-9-|---9-9-8-8-7-7-5-|
 E|-5-5---5-5---5-4-|-3-3---3-3---3-5-|-7-7---7-7---7-7-|---7-7-6-6-5-5-3-|
    glaciers...   ...dead...   ...and...     ...sucked......into the...
   (ooooooooooooooooooooooooooooooooooooooooo you...   ...soul)


solo:
 e|-----------------|-----------------|-----------------|-----------------|
 B|-----------------|-----------------|-----------------|-----------------|
 G|-----------------|-----------------|-----------------|-----------------|
 D|-----------------|-----------------|-----------------|-----------------|
 A|-----------------|-----------------|-----------------|-----------------|
 E|--0----x-14^-0--0|-0---14^--0---0--|--0----x-14^-0--0|-0---14^--0---0--|
                      super massive black hole            supermassive...

 e|-----------------|-----------------|-----------------|-----------------|
 B|-----------------|-----------------|-----------------|-----------------|
 G|-----------------|-----------------|-----------------|-----------------|
 D|-----------------|-----------------|-----------------|-----------------|
 A|-----------------|-----------------|-----------------|-----------------|
 E|--0----x-14^-0--0|-0---14^--0---0--|--0----x-14^-0--0|00-15-0----------|
                      supermassive black hole             supermassive...

2 guitars:
---                                                                      ---
 e|-----------------|-----------------|-----------------|-----------------|
 B|-----------------|-----------------|-----------------|-----------------|
 G|-----------------|-----------------|-----------------|-----------------|
 D|-----5-----5-5-5-|-----5-----7-7-5-|-----5-----5-5-5-|-----5-----7-7-9-|
 A|-----x-----5-5-5-|-----x-----7-7-5-|-----x-----5-5-5-|-----x-----7-7-9-|
 E|-0-0-0-0-0-3-3-3-|-0-0-0-0-0-5-5-3-|-0-0-0-0-0-3-3-3-|-0-0-0-0-0-5-5-7-|
 
 e|-----------------|-----------------|-----------------|-----------------|
 B|-----------------|-----------------|-----------------|-----------------|
 G|-----------------|-14--12h14p12h14p|12h14p12h14p12p14|p12h14p12-14^(16)|
 D|-------/14-------|-----------------|-----------------|-----------------|
 A|-/14-------------|-----------------|-----------------|-----------------|
 E|-----------------|-----------------|-----------------|-----------------|

---                                                                      ---
 e|-----------------|-----------------|-----------------|--------x--------|
 B|-----------------|-----------------|-----------------|--------x--------|
 G|-----------------|-----------------|-----------------|--------x--------|
 D|-----5-----5-5-5-|-----5-----7-7-5-|-----5-----5-5-5-|----5------------|
 A|-----x-----5-5-5-|-----x-----7-7-5-|-----x-----5-5-5-|----x------------|
 E|-0-0-0-0-0-3-3-3-|-0-0-0-0-0-5-5-3-|-0-0-0-0-0-3-3-3-|0-0-0-0----------|

 e|-----------------|-----------------|-----------------|-----------------|
 B|-----------12^---|-10--------------|-----------15^---|----17-----------|
 G|-----------------|-----------------|-----------17^---|-----------------|
 D|-----------------|-----------------|-----------------|-----------------|
 A|-----------------|-----------------|-----------------|-----------------|
 E|-----------------|-----------------|-----------------|-----------------|
---                                                                      ---

bridge 2:
 e|-----------------|-----------------|-----------------|-----------------|
 B|-----------------|-----------------|-----------------|-----------------|
 G|-----------------|-----------------|-----------------|-----------------|
 D|-7-7-7-7-7-7-7-6-|-5-5-5-5-5-5-5-7-|-9-9-9-9-9-9-9-5-|-2-2-2-2-4-4-5-5-|
 A|-7-7---7-7---7-6-|-5-5---5-5---5-7-|-9-9---9-9---9-5-|-2-2---2-4-4-5-5-|
 E|-5-5---5-5---5-4-|-3-3---3-3---3-5-|-7-7---7-7---7-3-|-0-0---0-2-2-3-3-|
    glaciers...   ...dead...   ...and...     ...sucked... ...supermassive

 e|-----------------|-----------------|-----------------|-----------------|
 B|-----------------|-----------------|-----------------|-----------------|
 G|-----------------|-----------------|-----------------|-----------------|
 D|-7-7-7-7-7-7-7-6-|-5-5-5-5-5-5-5-7-|-9-9-9-9-9-9-9-5-|-2-2-2-2-4-4-5-5-|
 A|-7-7---7-7---7-6-|-5-5---5-5---5-7-|-9-9---9-9---9-5-|-2-2---2-4-4-5-5-|
 E|-5-5---5-5---5-4-|-3-3---3-3---3-5-|-7-7---7-7---7-3-|-0-0---0-2-2-3-3-|
    glaciers...   ...dead...   ...and...     ...sucked... ...supermassive


chorus 3:
 e|-----------------|-----------------|-----------------|-----------------|
 B|-----------------|-----------------|-----------------|-----------------|
 G|-----------------|-----------------|-----------------|-----------------|
 D|-7-7-7-7-7-7-7-6-|-5-5-5-5-5-5-5-7-|-9-9-9-9-9-9-9-5-|-2-2-2-2-4-4-5-5-|
 A|-7-7---7-7---7-6-|-5-5---5-5---5-7-|-9-9---9-9---9-5-|-2-2---2-4-4-5-5-|
 E|-5-5---5-5---5-4-|-3-3---3-3---3-5-|-7-7---7-7---7-3-|-0-0---0-2-2-3-3-|
    glaciers...   ...dead...   ...and...     ...sucked... ...supermassive
   (ooooooooooooooooooooooooooooooooooooooooo you...   ...soul alight)

 e|-----------------|-----------------|-----------------|-----------------|
 B|-----------------|-----------------|-----------------|-----------------|
 G|-----------------|-----------------|-----------------|-----------------|
 D|-7-7-7-7-7-7-7-6-|-5-5-5-5-5-5-5-7-|-9-9-9-9-9-9-9-9-|---9-9-8-8-7-7-5-|
 A|-7-7---7-7---7-6-|-5-5---5-5---5-7-|-9-9---9-9---9-9-|---9-9-8-8-7-7-5-|
 E|-5-5---5-5---5-4-|-3-3---3-3---3-5-|-7-7---7-7---7-7-|---7-7-6-6-5-5-3-|
    glaciers...   ...dead...   ...and...     ...sucked......into the...
   (ooooooooooooooooooooooooooooooooooooooooo you...   ...soul)


outro:
 e|-----------------|-----------------|-----------------|-----------------|
 B|-----------------|-----------------|-----------------|-----------------|
 G|-----------------|-----------------|-----------------|-----------------|
 D|-----------------|-----------------|-----------------|-----------------|
 A|-----------------|-----------------|-----------------|-----------------|
 E|--0----x-14^-0--0|-0---14^--0---0--|--0----x-14^-0--0|-0---14^--0---0--|
                      supermassive black hole             supermassive...

 e|-----------------|-----------------|-----------------|-----------------|
 B|-----------------|-----------------|-----------------|-----------------|
 G|-----------------|-----------------|-----------------|-----------------|
 D|-----------------|-----------------|-----------------|-----------------|
 A|-----------------|-----------------|-----------------|-----------------|
 E|--0----x-14^-0--0|-0---14^--0---0--|--0----x-14^-0--0|00-15-0----------|
                      supermassive black hole             supermassive...


enjoy!

============================================================================
lyrics:

ooh baby dont you know i suffer?
ooh baby can you hear me moan?
you caught me under false pretences
how long before you let me go?

oooooohh you set my soul alight
oooooohh you set my soul alight

glaciers melting in the dead of night and the superstars 
(ooooooooooooooooooooooooohh)
sucked into the supermassive
(you set my soul alight)
glaciers melting in the dead of night and the superstars
(ooooooooooooooooooooooooohh)
sucked into the into the supermassive
(you set my soul)

i thought i was a fool for no-one
oh baby i'm a fool for you
you're the queen of the superficial
and how long before you tell the truth

oooooohh you set my soul alight
oooooohh you set my soul alight

glaciers melting in the dead of night and the superstars 
(ooooooooooooooooooooooooohh)
sucked into the supermassive
(you set my soul alight)
glaciers melting in the dead of night and the superstars
(ooooooooooooooooooooooooohh)
sucked into the into the supermassive
(you set my soul)

supermassive black hole
supermassive black hole
supermassive black hole
supermassive black hole

glaciers melting in the dead of night
and the superstars sucked into the supermassive
glaciers melting in the dead of night
and the superstars sucked into the supermassive

glaciers melting in the dead of night and the superstars 
(ooooooooooooooooooooooooohh)
sucked into the supermassive
(you set my soul alight)
glaciers melting in the dead of night and the superstars
(ooooooooooooooooooooooooohh)
sucked into the into the supermassive
(you set my soul)

supermassive black hole
supermassive black hole
supermassive black hole
supermassive black hole

============================================================================
| /  slide up
| \  slide down
| h  hammer-on
| p  pull-off
| ~  vibrato
| +  harmonic
| x  mute note
============================================================================
Related for Supermassive Black Hole tab