Song name
# A B C D E F G H I J K L M N O P Q R S T U V W X Y Z

Muse - Starlight Live tab

Muse-Starlight tab by Spannious
Live-version

This song doesnt have many guitarpieces in it but here goes:

e|-----------------------------------------------------|
B|-----------------------------------------------------|
G|---8-----8--9--6---9--8--6--8------8--9------9--8--6-|
D|-----9-----------6------------9--6------9--6---------|
A|-------9---------------------------------------------|
E|-----------------------------------------------------|

e|-----------------------------------------------------|
B|-----------------------------------------------------|
G|---8-----8--9--6---9--8--6--8------8--9------9--8--6-|
D|-----9-----------6------------9--6------9--6---------|
A|-------9---------------------------------------------|
E|-----------------------------------------------------|

When Bellamy sings "Black holes and revelations"

e|----------------------------------------------------|
B|--12-------12-------11-------11-------11------------|
G|-----13-------13-------13-------13-------13---------|
D|--------13-------13-------13-------13---------------|
A|----------------------------------------------------|
E|----------------------------------------------------|

e|----------------------------------------------------|
B|--------12-------12---------------12---12-----------|
G|-----13-------13-------13------11---------11-----12-|
D|--14-------14-------14------13-------13-------13----|
A|----------------------------------------------------|
E|----------------------------------------------------|
Tap to rate this tab
# A B C D E F G H I J K L M N O P Q R S T U V W X Y Z