Song name
# A B C D E F G H I J K L M N O P Q R S T U V W X Y Z

Muse - Blackout Live tab

Help us improve GuitareTab! Take a short survey!
Artist: Muse
Song: Blackout (live)
Album: Absolution

This is pretty accurate.

(Strum each note fast for a bar each)
|---|---|---|---|---|---|---|---|
|---|---|---|---|---|---|---|---|
|-3-|-7-|-2-|-7-|-0-|-8-|-2-|-6-|     x2
|---|---|---|---|---|---|---|---|
|---|---|---|---|---|---|---|---|
|---|---|---|---|---|---|---|---|

There are no chords during the verses but chris "Oooh"s the melody above^^^. Matt plays 
melody on the 2nd verse.

Then he does something funky with a little knob on the guitar which is followed by:
|---|---|---|---|---|---|---|---|
|---|---|---|---|---|---|---|---|
|-3-|-7-|-2-|-7-|-0-|-8-|-2-|-6-|     x2
|---|---|---|---|---|---|---|---|
|---|---|---|---|---|---|---|---|
|---|---|---|---|---|---|---|---|

|----|----|----|----|----|----|----|----|
|----|----|----|----|----|----|----|----|
|-12-|-14-|-15-|-17-|-19-|-19-|-20-|-22-|
|----|----|----|----|----|----|----|----|
|----|----|----|----|----|----|----|----|
|----|----|----|----|----|----|----|----|

|----|----|-----|-----|------|----|----|----|
|-19-|-19-|20-22|-22b-|22b-20|-19-|----|----|
|----|----|-----|-----|------|----|-19-|-19-|
|----|----|-----|-----|------|----|----|----|
|----|----|-----|-----|------|----|----|----|
|----|----|-----|-----|------|----|----|----|

Then on the verse:

|---|---|---|---|---|---|---|---|
|---|---|---|---|---|---|---|---|
|-3-|-7-|-2-|-7-|-0-|-8-|-2-|-6-|     x2
|---|---|---|---|---|---|---|---|
|---|---|---|---|---|---|---|---|
|---|---|---|---|---|---|---|---|

|----|----|----|----|----|----|----|----|
|----|----|----|----|----|----|----|----|
|-12-|-14-|-15-|-17-|-19-|-19-|-20-|-22-|
|----|----|----|----|----|----|----|----|
|----|----|----|----|----|----|----|----|
|----|----|----|----|----|----|----|----|

|----|----|----|-----|----|----|----|-------|
|-19-|-19-|-20-|22-20|-19-|-19-|----|-------|
|----|----|----|-----|----|----|-19-|--19---|
|----|----|----|-----|----|----|----|-------|
|----|----|----|-----|----|----|----|-------|
|----|----|----|-----|----|----|----|-------|
Related for Blackout Live tab