Song name
# A B C D E F G H I J K L M N O P Q R S T U V W X Y Z

Muse - Heartbreaker Live tab

artist: Muse
song: Heartbreaker (Live)
tuning: standard (eadgbe)

muse performed this song's fragment on absolution tour or hullabaloo,
i've forget it...
but it's 100% korrekt


e|--------------|
b|--------------|
g|--------------|
d|--------------|
a|-----6--7-8---|
e|-6-9--------4-|

e|------------------|
b|------------------|
g|------------------|
d|------------------|
a|---------6--7-8---|
e|-6-6-9-9--------4-|


e|--------------|
b|--------------|
g|--------------|
d|-----6--7-8---|
a|-6-9--------4-|
e|--------------|

e|------------------|
b|------------------|
g|------------------|
d|---------6--7-8---|
a|-6-6-9-9--------4-|
e|------------------|

thanx 2 hiv, trash, kashmir, and kurt kobain :))
Tap to rate this tab
# A B C D E F G H I J K L M N O P Q R S T U V W X Y Z