Song name
# A B C D E F G H I J K L M N O P Q R S T U V W X Y Z

Musee Mecanique - The Things That I Know tab

-------------------------------------------------------------------------------
			     The Things That I Know - Musee Mecanique
-------------------------------------------------------------------------------

Tuning: Standard with Capo 1

the song is based of the E, Am chords. Unless you do NOT have a capo in which case its 
the F, Bbm chords.

the picking is really tricky at first.


E

e|-----------------------------------------------------------------------------|
B|------------------0----------------------------------------------------------|
G|------1----2----------2-----1------------------------------------------------|
D|------------------------------------4------2-------2-------------------------|
A|-----------------------------------------------------------------------------|
E|---0-----0-----0----0-----0-----0------0--------0----------------------------|

Am

e|--------------------------------------------------------------------------------|
B|--------------------------------------------------------------------------------|
G|--------------------------------------------------------------------------------|
D|-----2---1----------REPEAT THIS A FEW TIMES-------------------------------------|
A|---0---0------------------------------------------------------------------------|
E|--------------------------------------------------------------------------------|


the little variation the in verses

F#/Am

e|---------------------------------------------------------------------------|
B|---------------------------------------------------------------------------|
G|----------1------------REPEATED--------------------------------------------|
D|-----2---------------------------------------------------------------------|
A|---------------------------------------------------------------------------|
E|---2----2------------------------------------------------------------------|

Chorus: THIS IS TABBED OUT not RELATVE TO CAPO meaning where it says 7, you're actually 
the seventh fret. NOT the 8th. It just seemed easier that way.

e|------------------------------------------------------------------------------|
B|------------------------------------------------------------------------------|
G|------------9------------7-------------5-------7------7------5----3-----------|
D|-------9----------------------------------------------------------------------|
A|---7------7----------5------------3--------5--------5------3----1-------------|
E|------------------------------------------------------------------------------|
Tap to rate this tab
 
# A B C D E F G H I J K L M N O P Q R S T U V W X Y Z