Song name
# A B C D E F G H I J K L M N O P Q R S T U V W X Y Z

Mushroomhead - Burn tab

Hey there all. I saw that noone else tabbed this song so I miht aswell have done it. If 
has any queries about the tab/would like to point out any mistakes email me at 
Please rate cos its my first tab.

Anyway, heres the rough outline...

Standard tuning.

Intro: ??????????????????? some wierd plam muting and sampling i assume
and then something that goes like this

0:02 - 0:04

E-----------------|-----------------|
B-----------------|-----------------|
G-----------------|-----------------|
D-3p2p1--3p2p1h2--|-2p1h2-----------|
A-3p2p1--3p2p1h2--|-2p1h2-----------|
E-3p2p1--3p2p1h2--|-2p1h2-----------|

Main riff:
E-----------------|-----------------|-----------------|-----------------|
B-----------------|-----------------|-----------------|-----------------|
G-----------------|-----------------|-----------------|-----------------|
D-212-xx-2-2-212--|43-1-22-1-2-1-2--|-1-2-xxxx--------|-----------------|
A-212-xx-2-2-212--|43-1-22-1-2-1-2--|-1-2-xxxx--------|-----------------|
E-212-xx-2-2-212--|43-1-22-1-2-1-2--|-1-2-xxxx--------|-----------------|


Chorus:
E-----------------|
B-----------------|
G-----------------|
D-1-x-xx-1-x-xx---|
A-1-x-xx-1-x-xx---|
E-1-x-xx-1-x-xx---|

(repeat as necessary)
Tap to rate this tab
 
# A B C D E F G H I J K L M N O P Q R S T U V W X Y Z